ISO-10303-21;
HEADER;
/* Generated by software containing ST-Developer
 * from STEP Tools, Inc. (www.steptools.com) 
 */
/* OPTION: using custom renumber hook */

FILE_DESCRIPTION(
/* description */ ('STEP AP242',
'CAx-IF Rec.Pracs.---Representation and Presentation of Product Manufa
cturing Information (PMI)---4.0---2014-10-13',
'CAx-IF Rec.Pracs.---3D Tessellated Geometry---0.4---2014-09-14','2;1'),

/* implementation_level */ '2;1');

FILE_NAME(
/* name */ '66bca53b96cad025eb17135b',
/* time_stamp */ '2024-08-14T12:38:20Z',
/* author */ (''),
/* organization */ (''),
/* preprocessor_version */ 'ST-DEVELOPER v20',
/* originating_system */ '  ',
/* authorisation */ '  ');

FILE_SCHEMA (('AP242_MANAGED_MODEL_BASED_3D_ENGINEERING_MIM_LF { 1 0 10303 442 1 1 4 }'));
ENDSEC;

DATA;
#10=SHAPE_REPRESENTATION_RELATIONSHIP('','',#297,#11);
#11=ADVANCED_BREP_SHAPE_REPRESENTATION('',(#295),#497);
#12=CYLINDRICAL_SURFACE('',#307,0.057);
#13=CYLINDRICAL_SURFACE('',#309,0.057);
#14=CYLINDRICAL_SURFACE('',#320,0.0205);
#15=CYLINDRICAL_SURFACE('',#324,0.0365);
#16=CYLINDRICAL_SURFACE('',#325,0.0365);
#17=CYLINDRICAL_SURFACE('',#330,0.0055);
#18=CYLINDRICAL_SURFACE('',#331,0.0055);
#19=CYLINDRICAL_SURFACE('',#332,0.0055);
#20=CYLINDRICAL_SURFACE('',#333,0.0055);
#21=LINE('',#432,#35);
#22=LINE('',#435,#36);
#23=LINE('',#439,#37);
#24=LINE('',#441,#38);
#25=LINE('',#445,#39);
#26=LINE('',#449,#40);
#27=LINE('',#451,#41);
#28=LINE('',#453,#42);
#29=LINE('',#467,#43);
#30=LINE('',#469,#44);
#31=LINE('',#470,#45);
#32=LINE('',#472,#46);
#33=LINE('',#487,#47);
#34=LINE('',#490,#48);
#35=VECTOR('',#348,1.);
#36=VECTOR('',#349,1.);
#37=VECTOR('',#352,1.);
#38=VECTOR('',#353,1.);
#39=VECTOR('',#358,1.);
#40=VECTOR('',#361,1.);
#41=VECTOR('',#364,1.);
#42=VECTOR('',#365,1.);
#43=VECTOR('',#380,1.);
#44=VECTOR('',#381,1.);
#45=VECTOR('',#382,1.);
#46=VECTOR('',#383,1.);
#47=VECTOR('',#404,1.);
#48=VECTOR('',#409,1.);
#49=ORIENTED_EDGE('',*,*,#113,.T.);
#50=ORIENTED_EDGE('',*,*,#114,.T.);
#51=ORIENTED_EDGE('',*,*,#115,.T.);
#52=ORIENTED_EDGE('',*,*,#116,.T.);
#53=ORIENTED_EDGE('',*,*,#117,.T.);
#54=ORIENTED_EDGE('',*,*,#118,.T.);
#55=ORIENTED_EDGE('',*,*,#119,.T.);
#56=ORIENTED_EDGE('',*,*,#120,.F.);
#57=ORIENTED_EDGE('',*,*,#121,.T.);
#58=ORIENTED_EDGE('',*,*,#122,.F.);
#59=ORIENTED_EDGE('',*,*,#123,.F.);
#60=ORIENTED_EDGE('',*,*,#120,.T.);
#61=ORIENTED_EDGE('',*,*,#124,.T.);
#62=ORIENTED_EDGE('',*,*,#125,.F.);
#63=ORIENTED_EDGE('',*,*,#126,.F.);
#64=ORIENTED_EDGE('',*,*,#127,.F.);
#65=ORIENTED_EDGE('',*,*,#123,.T.);
#66=ORIENTED_EDGE('',*,*,#128,.T.);
#67=ORIENTED_EDGE('',*,*,#129,.F.);
#68=ORIENTED_EDGE('',*,*,#130,.T.);
#69=ORIENTED_EDGE('',*,*,#131,.T.);
#70=ORIENTED_EDGE('',*,*,#132,.T.);
#71=ORIENTED_EDGE('',*,*,#133,.T.);
#72=ORIENTED_EDGE('',*,*,#134,.F.);
#73=ORIENTED_EDGE('',*,*,#125,.T.);
#74=ORIENTED_EDGE('',*,*,#135,.T.);
#75=ORIENTED_EDGE('',*,*,#136,.T.);
#76=ORIENTED_EDGE('',*,*,#129,.T.);
#77=ORIENTED_EDGE('',*,*,#137,.F.);
#78=ORIENTED_EDGE('',*,*,#138,.T.);
#79=ORIENTED_EDGE('',*,*,#139,.T.);
#80=ORIENTED_EDGE('',*,*,#140,.F.);
#81=ORIENTED_EDGE('',*,*,#140,.T.);
#82=ORIENTED_EDGE('',*,*,#141,.F.);
#83=ORIENTED_EDGE('',*,*,#141,.T.);
#84=ORIENTED_EDGE('',*,*,#142,.F.);
#85=ORIENTED_EDGE('',*,*,#142,.T.);
#86=ORIENTED_EDGE('',*,*,#117,.F.);
#87=ORIENTED_EDGE('',*,*,#134,.T.);
#88=ORIENTED_EDGE('',*,*,#139,.F.);
#89=ORIENTED_EDGE('',*,*,#126,.T.);
#90=ORIENTED_EDGE('',*,*,#138,.F.);
#91=ORIENTED_EDGE('',*,*,#143,.F.);
#92=ORIENTED_EDGE('',*,*,#121,.F.);
#93=ORIENTED_EDGE('',*,*,#122,.T.);
#94=ORIENTED_EDGE('',*,*,#143,.T.);
#95=ORIENTED_EDGE('',*,*,#137,.T.);
#96=ORIENTED_EDGE('',*,*,#128,.F.);
#97=ORIENTED_EDGE('',*,*,#144,.T.);
#98=ORIENTED_EDGE('',*,*,#135,.F.);
#99=ORIENTED_EDGE('',*,*,#124,.F.);
#100=ORIENTED_EDGE('',*,*,#119,.F.);
#101=ORIENTED_EDGE('',*,*,#127,.T.);
#102=ORIENTED_EDGE('',*,*,#136,.F.);
#103=ORIENTED_EDGE('',*,*,#144,.F.);
#104=ORIENTED_EDGE('',*,*,#118,.F.);
#105=ORIENTED_EDGE('',*,*,#116,.F.);
#106=ORIENTED_EDGE('',*,*,#133,.F.);
#107=ORIENTED_EDGE('',*,*,#115,.F.);
#108=ORIENTED_EDGE('',*,*,#132,.F.);
#109=ORIENTED_EDGE('',*,*,#114,.F.);
#110=ORIENTED_EDGE('',*,*,#131,.F.);
#111=ORIENTED_EDGE('',*,*,#113,.F.);
#112=ORIENTED_EDGE('',*,*,#130,.F.);
#113=EDGE_CURVE('',#145,#145,#171,.F.);
#114=EDGE_CURVE('',#146,#146,#172,.F.);
#115=EDGE_CURVE('',#147,#147,#173,.F.);
#116=EDGE_CURVE('',#148,#148,#174,.F.);
#117=EDGE_CURVE('',#149,#149,#175,.T.);
#118=EDGE_CURVE('',#150,#151,#21,.T.);
#119=EDGE_CURVE('',#151,#152,#22,.T.);
#120=EDGE_CURVE('',#153,#152,#176,.T.);
#121=EDGE_CURVE('',#153,#154,#23,.T.);
#122=EDGE_CURVE('',#155,#154,#24,.T.);
#123=EDGE_CURVE('',#150,#155,#177,.T.);
#124=EDGE_CURVE('',#152,#156,#25,.T.);
#125=EDGE_CURVE('',#157,#156,#178,.T.);
#126=EDGE_CURVE('',#153,#157,#26,.T.);
#127=EDGE_CURVE('',#150,#158,#27,.T.);
#128=EDGE_CURVE('',#155,#159,#28,.T.);
#129=EDGE_CURVE('',#158,#159,#179,.T.);
#130=EDGE_CURVE('',#160,#160,#180,.T.);
#131=EDGE_CURVE('',#161,#161,#181,.T.);
#132=EDGE_CURVE('',#162,#162,#182,.T.);
#133=EDGE_CURVE('',#163,#163,#183,.T.);
#134=EDGE_CURVE('',#164,#164,#184,.T.);
#135=EDGE_CURVE('',#156,#165,#29,.T.);
#136=EDGE_CURVE('',#165,#158,#30,.T.);
#137=EDGE_CURVE('',#166,#159,#31,.T.);
#138=EDGE_CURVE('',#166,#157,#32,.T.);
#139=EDGE_CURVE('',#167,#167,#185,.T.);
#140=EDGE_CURVE('',#168,#168,#186,.T.);
#141=EDGE_CURVE('',#169,#169,#187,.T.);
#142=EDGE_CURVE('',#170,#170,#188,.T.);
#143=EDGE_CURVE('',#154,#166,#33,.T.);
#144=EDGE_CURVE('',#151,#165,#34,.T.);
#145=VERTEX_POINT('',#423);
#146=VERTEX_POINT('',#425);
#147=VERTEX_POINT('',#427);
#148=VERTEX_POINT('',#429);
#149=VERTEX_POINT('',#431);
#150=VERTEX_POINT('',#433);
#151=VERTEX_POINT('',#434);
#152=VERTEX_POINT('',#436);
#153=VERTEX_POINT('',#438);
#154=VERTEX_POINT('',#440);
#155=VERTEX_POINT('',#442);
#156=VERTEX_POINT('',#446);
#157=VERTEX_POINT('',#448);
#158=VERTEX_POINT('',#452);
#159=VERTEX_POINT('',#454);
#160=VERTEX_POINT('',#458);
#161=VERTEX_POINT('',#460);
#162=VERTEX_POINT('',#462);
#163=VERTEX_POINT('',#464);
#164=VERTEX_POINT('',#466);
#165=VERTEX_POINT('',#468);
#166=VERTEX_POINT('',#471);
#167=VERTEX_POINT('',#475);
#168=VERTEX_POINT('',#477);
#169=VERTEX_POINT('',#480);
#170=VERTEX_POINT('',#483);
#171=CIRCLE('',#300,0.0055);
#172=CIRCLE('',#301,0.0055);
#173=CIRCLE('',#302,0.0055);
#174=CIRCLE('',#303,0.0055);
#175=CIRCLE('',#304,0.0365);
#176=CIRCLE('',#305,0.057);
#177=CIRCLE('',#306,0.057);
#178=CIRCLE('',#308,0.057);
#179=CIRCLE('',#310,0.057);
#180=CIRCLE('',#312,0.0055);
#181=CIRCLE('',#313,0.0055);
#182=CIRCLE('',#314,0.0055);
#183=CIRCLE('',#315,0.0055);
#184=CIRCLE('',#316,0.0365);
#185=CIRCLE('',#318,0.0365);
#186=CIRCLE('',#319,0.0205);
#187=CIRCLE('',#321,0.0205);
#188=CIRCLE('',#323,0.0365);
#189=EDGE_LOOP('',(#49));
#190=EDGE_LOOP('',(#50));
#191=EDGE_LOOP('',(#51));
#192=EDGE_LOOP('',(#52));
#193=EDGE_LOOP('',(#53));
#194=EDGE_LOOP('',(#54,#55,#56,#57,#58,#59));
#195=EDGE_LOOP('',(#60,#61,#62,#63));
#196=EDGE_LOOP('',(#64,#65,#66,#67));
#197=EDGE_LOOP('',(#68));
#198=EDGE_LOOP('',(#69));
#199=EDGE_LOOP('',(#70));
#200=EDGE_LOOP('',(#71));
#201=EDGE_LOOP('',(#72));
#202=EDGE_LOOP('',(#73,#74,#75,#76,#77,#78));
#203=EDGE_LOOP('',(#79));
#204=EDGE_LOOP('',(#80));
#205=EDGE_LOOP('',(#81));
#206=EDGE_LOOP('',(#82));
#207=EDGE_LOOP('',(#83));
#208=EDGE_LOOP('',(#84));
#209=EDGE_LOOP('',(#85));
#210=EDGE_LOOP('',(#86));
#211=EDGE_LOOP('',(#87));
#212=EDGE_LOOP('',(#88));
#213=EDGE_LOOP('',(#89,#90,#91,#92));
#214=EDGE_LOOP('',(#93,#94,#95,#96));
#215=EDGE_LOOP('',(#97,#98,#99,#100));
#216=EDGE_LOOP('',(#101,#102,#103,#104));
#217=EDGE_LOOP('',(#105));
#218=EDGE_LOOP('',(#106));
#219=EDGE_LOOP('',(#107));
#220=EDGE_LOOP('',(#108));
#221=EDGE_LOOP('',(#109));
#222=EDGE_LOOP('',(#110));
#223=EDGE_LOOP('',(#111));
#224=EDGE_LOOP('',(#112));
#225=FACE_BOUND('',#189,.T.);
#226=FACE_BOUND('',#190,.T.);
#227=FACE_BOUND('',#191,.T.);
#228=FACE_BOUND('',#192,.T.);
#229=FACE_BOUND('',#193,.T.);
#230=FACE_BOUND('',#194,.T.);
#231=FACE_BOUND('',#195,.T.);
#232=FACE_BOUND('',#196,.T.);
#233=FACE_BOUND('',#197,.T.);
#234=FACE_BOUND('',#198,.T.);
#235=FACE_BOUND('',#199,.T.);
#236=FACE_BOUND('',#200,.T.);
#237=FACE_BOUND('',#201,.T.);
#238=FACE_BOUND('',#202,.T.);
#239=FACE_BOUND('',#203,.T.);
#240=FACE_BOUND('',#204,.T.);
#241=FACE_BOUND('',#205,.T.);
#242=FACE_BOUND('',#206,.T.);
#243=FACE_BOUND('',#207,.T.);
#244=FACE_BOUND('',#208,.T.);
#245=FACE_BOUND('',#209,.T.);
#246=FACE_BOUND('',#210,.T.);
#247=FACE_BOUND('',#211,.T.);
#248=FACE_BOUND('',#212,.T.);
#249=FACE_BOUND('',#213,.T.);
#250=FACE_BOUND('',#214,.T.);
#251=FACE_BOUND('',#215,.T.);
#252=FACE_BOUND('',#216,.T.);
#253=FACE_BOUND('',#217,.T.);
#254=FACE_BOUND('',#218,.T.);
#255=FACE_BOUND('',#219,.T.);
#256=FACE_BOUND('',#220,.T.);
#257=FACE_BOUND('',#221,.T.);
#258=FACE_BOUND('',#222,.T.);
#259=FACE_BOUND('',#223,.T.);
#260=FACE_BOUND('',#224,.T.);
#261=PLANE('',#299);
#262=PLANE('',#311);
#263=PLANE('',#317);
#264=PLANE('',#322);
#265=PLANE('',#326);
#266=PLANE('',#327);
#267=PLANE('',#328);
#268=PLANE('',#329);
#269=ADVANCED_FACE('',(#225,#226,#227,#228,#229,#230),#261,.T.);
#270=ADVANCED_FACE('',(#231),#12,.T.);
#271=ADVANCED_FACE('',(#232),#13,.T.);
#272=ADVANCED_FACE('',(#233,#234,#235,#236,#237,#238),#262,.T.);
#273=ADVANCED_FACE('',(#239,#240),#263,.T.);
#274=ADVANCED_FACE('',(#241,#242),#14,.F.);
#275=ADVANCED_FACE('',(#243,#244),#264,.T.);
#276=ADVANCED_FACE('',(#245,#246),#15,.T.);
#277=ADVANCED_FACE('',(#247,#248),#16,.T.);
#278=ADVANCED_FACE('',(#249),#265,.T.);
#279=ADVANCED_FACE('',(#250),#266,.F.);
#280=ADVANCED_FACE('',(#251),#267,.T.);
#281=ADVANCED_FACE('',(#252),#268,.T.);
#282=ADVANCED_FACE('',(#253,#254),#17,.F.);
#283=ADVANCED_FACE('',(#255,#256),#18,.F.);
#284=ADVANCED_FACE('',(#257,#258),#19,.F.);
#285=ADVANCED_FACE('',(#259,#260),#20,.F.);
#286=CLOSED_SHELL('',(#269,#270,#271,#272,#273,#274,#275,#276,#277,#278,
#279,#280,#281,#282,#283,#284,#285));
#287=STYLED_ITEM('',(#288),#295);
#288=PRESENTATION_STYLE_ASSIGNMENT((#289));
#289=SURFACE_STYLE_USAGE(.BOTH.,#290);
#290=SURFACE_SIDE_STYLE('',(#291));
#291=SURFACE_STYLE_FILL_AREA(#292);
#292=FILL_AREA_STYLE('',(#293));
#293=FILL_AREA_STYLE_COLOUR('',#294);
#294=COLOUR_RGB('',0.615686274509804,0.811764705882353,0.929411764705882);
#295=MANIFOLD_SOLID_BREP('Ballnut',#286);
#296=SHAPE_DEFINITION_REPRESENTATION(#502,#297);
#297=SHAPE_REPRESENTATION('Ballnut',(#298),#497);
#298=AXIS2_PLACEMENT_3D('',#420,#334,#335);
#299=AXIS2_PLACEMENT_3D('',#421,#336,#337);
#300=AXIS2_PLACEMENT_3D('',#422,#338,#339);
#301=AXIS2_PLACEMENT_3D('',#424,#340,#341);
#302=AXIS2_PLACEMENT_3D('',#426,#342,#343);
#303=AXIS2_PLACEMENT_3D('',#428,#344,#345);
#304=AXIS2_PLACEMENT_3D('',#430,#346,#347);
#305=AXIS2_PLACEMENT_3D('',#437,#350,#351);
#306=AXIS2_PLACEMENT_3D('',#443,#354,#355);
#307=AXIS2_PLACEMENT_3D('',#444,#356,#357);
#308=AXIS2_PLACEMENT_3D('',#447,#359,#360);
#309=AXIS2_PLACEMENT_3D('',#450,#362,#363);
#310=AXIS2_PLACEMENT_3D('',#455,#366,#367);
#311=AXIS2_PLACEMENT_3D('',#456,#368,#369);
#312=AXIS2_PLACEMENT_3D('',#457,#370,#371);
#313=AXIS2_PLACEMENT_3D('',#459,#372,#373);
#314=AXIS2_PLACEMENT_3D('',#461,#374,#375);
#315=AXIS2_PLACEMENT_3D('',#463,#376,#377);
#316=AXIS2_PLACEMENT_3D('',#465,#378,#379);
#317=AXIS2_PLACEMENT_3D('',#473,#384,#385);
#318=AXIS2_PLACEMENT_3D('',#474,#386,#387);
#319=AXIS2_PLACEMENT_3D('',#476,#388,#389);
#320=AXIS2_PLACEMENT_3D('',#478,#390,#391);
#321=AXIS2_PLACEMENT_3D('',#479,#392,#393);
#322=AXIS2_PLACEMENT_3D('',#481,#394,#395);
#323=AXIS2_PLACEMENT_3D('',#482,#396,#397);
#324=AXIS2_PLACEMENT_3D('',#484,#398,#399);
#325=AXIS2_PLACEMENT_3D('',#485,#400,#401);
#326=AXIS2_PLACEMENT_3D('',#486,#402,#403);
#327=AXIS2_PLACEMENT_3D('',#488,#405,#406);
#328=AXIS2_PLACEMENT_3D('',#489,#407,#408);
#329=AXIS2_PLACEMENT_3D('',#491,#410,#411);
#330=AXIS2_PLACEMENT_3D('',#492,#412,#413);
#331=AXIS2_PLACEMENT_3D('',#493,#414,#415);
#332=AXIS2_PLACEMENT_3D('',#494,#416,#417);
#333=AXIS2_PLACEMENT_3D('',#495,#418,#419);
#334=DIRECTION('',(0.,0.,1.));
#335=DIRECTION('',(1.,0.,0.));
#336=DIRECTION('',(1.,0.,0.));
#337=DIRECTION('',(0.,0.,-1.));
#338=DIRECTION('',(1.,0.,0.));
#339=DIRECTION('',(0.,0.,-1.));
#340=DIRECTION('',(1.,0.,0.));
#341=DIRECTION('',(0.,0.,-1.));
#342=DIRECTION('',(1.,0.,0.));
#343=DIRECTION('',(0.,0.,-1.));
#344=DIRECTION('',(1.,0.,0.));
#345=DIRECTION('',(0.,0.,-1.));
#346=DIRECTION('',(-1.,0.,0.));
#347=DIRECTION('',(0.,0.,1.));
#348=DIRECTION('',(0.,0.,1.));
#349=DIRECTION('',(0.,1.,0.));
#350=DIRECTION('',(-1.,0.,0.));
#351=DIRECTION('',(0.,0.,1.));
#352=DIRECTION('',(0.,1.,-2.64810786545883E-16));
#353=DIRECTION('',(0.,0.,1.));
#354=DIRECTION('',(-1.,0.,0.));
#355=DIRECTION('',(0.,0.,1.));
#356=DIRECTION('',(-1.,0.,0.));
#357=DIRECTION('',(0.,0.,1.));
#358=DIRECTION('',(-1.,0.,0.));
#359=DIRECTION('',(-1.,0.,0.));
#360=DIRECTION('',(0.,0.,1.));
#361=DIRECTION('',(-1.,0.,0.));
#362=DIRECTION('',(-1.,0.,0.));
#363=DIRECTION('',(0.,0.,1.));
#364=DIRECTION('',(-1.,0.,0.));
#365=DIRECTION('',(-1.,0.,0.));
#366=DIRECTION('',(-1.,0.,0.));
#367=DIRECTION('',(0.,0.,1.));
#368=DIRECTION('',(-1.,0.,0.));
#369=DIRECTION('',(0.,0.,1.));
#370=DIRECTION('',(1.,0.,0.));
#371=DIRECTION('',(0.,0.,-1.));
#372=DIRECTION('',(1.,0.,0.));
#373=DIRECTION('',(0.,0.,-1.));
#374=DIRECTION('',(1.,0.,0.));
#375=DIRECTION('',(0.,0.,-1.));
#376=DIRECTION('',(1.,0.,0.));
#377=DIRECTION('',(0.,0.,-1.));
#378=DIRECTION('',(-1.,0.,0.));
#379=DIRECTION('',(0.,0.,1.));
#380=DIRECTION('',(0.,-1.,0.));
#381=DIRECTION('',(0.,0.,-1.));
#382=DIRECTION('',(0.,0.,-1.));
#383=DIRECTION('',(0.,-1.,2.64810786545883E-16));
#384=DIRECTION('',(-1.,0.,0.));
#385=DIRECTION('',(0.,0.,1.));
#386=DIRECTION('',(-1.,0.,0.));
#387=DIRECTION('',(0.,0.,1.));
#388=DIRECTION('',(-1.,0.,0.));
#389=DIRECTION('',(0.,0.,1.));
#390=DIRECTION('',(-1.,0.,0.));
#391=DIRECTION('',(0.,0.,1.));
#392=DIRECTION('',(-1.,0.,0.));
#393=DIRECTION('',(0.,0.,1.));
#394=DIRECTION('',(1.,0.,0.));
#395=DIRECTION('',(0.,0.,-1.));
#396=DIRECTION('',(-1.,0.,0.));
#397=DIRECTION('',(0.,0.,1.));
#398=DIRECTION('',(-1.,0.,0.));
#399=DIRECTION('',(0.,0.,1.));
#400=DIRECTION('',(-1.,0.,0.));
#401=DIRECTION('',(0.,0.,1.));
#402=DIRECTION('',(0.,-2.64810786545883E-16,-1.));
#403=DIRECTION('',(0.,1.,-2.64810786545883E-16));
#404=DIRECTION('',(-1.,0.,0.));
#405=DIRECTION('',(0.,1.,0.));
#406=DIRECTION('',(0.,0.,1.));
#407=DIRECTION('',(0.,0.,-1.));
#408=DIRECTION('',(-1.,0.,0.));
#409=DIRECTION('',(-1.,0.,0.));
#410=DIRECTION('',(0.,1.,0.));
#411=DIRECTION('',(0.,0.,1.));
#412=DIRECTION('',(1.,0.,0.));
#413=DIRECTION('',(0.,0.,-1.));
#414=DIRECTION('',(1.,0.,0.));
#415=DIRECTION('',(0.,0.,-1.));
#416=DIRECTION('',(1.,0.,0.));
#417=DIRECTION('',(0.,0.,-1.));
#418=DIRECTION('',(1.,0.,0.));
#419=DIRECTION('',(0.,0.,-1.));
#420=CARTESIAN_POINT('',(0.,0.,0.));
#421=CARTESIAN_POINT('',(0.013,0.,0.04675));
#422=CARTESIAN_POINT('',(0.013,0.02325,-0.0402701812759764));
#423=CARTESIAN_POINT('',(0.013,0.02325,-0.0457701812759764));
#424=CARTESIAN_POINT('',(0.013,-0.02325,-0.0402701812759764));
#425=CARTESIAN_POINT('',(0.013,-0.02325,-0.0457701812759764));
#426=CARTESIAN_POINT('',(0.013,-0.02325,0.0402701812759764));
#427=CARTESIAN_POINT('',(0.013,-0.02325,0.0347701812759764));
#428=CARTESIAN_POINT('',(0.013,0.02325,0.0402701812759764));
#429=CARTESIAN_POINT('',(0.013,0.02325,0.0347701812759764));
#430=CARTESIAN_POINT('',(0.013,0.,0.));
#431=CARTESIAN_POINT('',(0.013,0.,0.0365));
#432=CARTESIAN_POINT('',(0.013,0.0375,0.04675));
#433=CARTESIAN_POINT('',(0.013,0.0375,-0.0429272640637626));
#434=CARTESIAN_POINT('',(0.013,0.0375,0.0423928133060418));
#435=CARTESIAN_POINT('',(0.013,0.,0.0423928133060418));
#436=CARTESIAN_POINT('',(0.013,0.0381031413403027,0.0423928133060418));
#437=CARTESIAN_POINT('',(0.013,0.,0.));
#438=CARTESIAN_POINT('',(0.013,-0.0381031413403027,0.0423928133060418));
#439=CARTESIAN_POINT('',(0.013,-1.15383003555432E-18,0.0423928133060418));
#440=CARTESIAN_POINT('',(0.013,-0.0375,0.0423928133060418));
#441=CARTESIAN_POINT('',(0.013,-0.0375,0.04675));
#442=CARTESIAN_POINT('',(0.013,-0.0375,-0.0429272640637626));
#443=CARTESIAN_POINT('',(0.013,0.,0.));
#444=CARTESIAN_POINT('',(0.0788924116641283,0.,0.));
#445=CARTESIAN_POINT('',(0.019,0.0381031413403027,0.0423928133060418));
#446=CARTESIAN_POINT('',(-0.006,0.0381031413403027,0.0423928133060418));
#447=CARTESIAN_POINT('',(-0.006,0.,0.));
#448=CARTESIAN_POINT('',(-0.006,-0.0381031413403027,0.0423928133060418));
#449=CARTESIAN_POINT('',(0.019,-0.0381031413403027,0.0423928133060418));
#450=CARTESIAN_POINT('',(0.0788924116641283,0.,0.));
#451=CARTESIAN_POINT('',(0.019,0.0375,-0.0429272640637626));
#452=CARTESIAN_POINT('',(-0.006,0.0375,-0.0429272640637626));
#453=CARTESIAN_POINT('',(0.019,-0.0375,-0.0429272640637626));
#454=CARTESIAN_POINT('',(-0.006,-0.0375,-0.0429272640637626));
#455=CARTESIAN_POINT('',(-0.006,0.,0.));
#456=CARTESIAN_POINT('',(-0.006,0.,0.04675));
#457=CARTESIAN_POINT('',(-0.006,0.02325,-0.0402701812759764));
#458=CARTESIAN_POINT('',(-0.006,0.02325,-0.0457701812759764));
#459=CARTESIAN_POINT('',(-0.006,-0.02325,-0.0402701812759764));
#460=CARTESIAN_POINT('',(-0.006,-0.02325,-0.0457701812759764));
#461=CARTESIAN_POINT('',(-0.006,-0.02325,0.0402701812759764));
#462=CARTESIAN_POINT('',(-0.006,-0.02325,0.0347701812759764));
#463=CARTESIAN_POINT('',(-0.006,0.02325,0.0402701812759764));
#464=CARTESIAN_POINT('',(-0.006,0.02325,0.0347701812759764));
#465=CARTESIAN_POINT('',(-0.006,0.,0.));
#466=CARTESIAN_POINT('',(-0.006,0.,0.0365));
#467=CARTESIAN_POINT('',(-0.006,0.0517807499222225,0.0423928133060418));
#468=CARTESIAN_POINT('',(-0.006,0.0375,0.0423928133060418));
#469=CARTESIAN_POINT('',(-0.006,0.0375,-0.00228365942953151));
#470=CARTESIAN_POINT('',(-0.006,-0.0375,-0.00280772522091865));
#471=CARTESIAN_POINT('',(-0.006,-0.0375,0.0423928133060418));
#472=CARTESIAN_POINT('',(-0.006,-0.0506016073673134,0.0423928133060418));
#473=CARTESIAN_POINT('',(-0.025,0.,0.0285));
#474=CARTESIAN_POINT('',(-0.025,0.,0.));
#475=CARTESIAN_POINT('',(-0.025,0.,0.0365));
#476=CARTESIAN_POINT('',(-0.025,0.,0.));
#477=CARTESIAN_POINT('',(-0.025,0.,0.0205));
#478=CARTESIAN_POINT('',(0.0788924116641283,0.,0.));
#479=CARTESIAN_POINT('',(0.075,0.,0.));
#480=CARTESIAN_POINT('',(0.075,0.,0.0205));
#481=CARTESIAN_POINT('',(0.075,0.,0.0285));
#482=CARTESIAN_POINT('',(0.075,0.,0.));
#483=CARTESIAN_POINT('',(0.075,0.,0.0365));
#484=CARTESIAN_POINT('',(0.0788924116641283,0.,0.));
#485=CARTESIAN_POINT('',(0.0788924116641283,0.,0.));
#486=CARTESIAN_POINT('',(0.019,-0.0506016073673134,0.0423928133060418));
#487=CARTESIAN_POINT('',(0.019,-0.0375,0.0423928133060418));
#488=CARTESIAN_POINT('',(0.019,-0.0375,-0.00280772522091865));
#489=CARTESIAN_POINT('',(0.019,0.0517807499222225,0.0423928133060418));
#490=CARTESIAN_POINT('',(0.019,0.0375,0.0423928133060418));
#491=CARTESIAN_POINT('',(0.019,0.0375,-0.00228365942953151));
#492=CARTESIAN_POINT('',(-0.006,0.02325,0.0402701812759764));
#493=CARTESIAN_POINT('',(-0.006,-0.02325,0.0402701812759764));
#494=CARTESIAN_POINT('',(-0.006,-0.02325,-0.0402701812759764));
#495=CARTESIAN_POINT('',(-0.006,0.02325,-0.0402701812759764));
#496=MECHANICAL_DESIGN_GEOMETRIC_PRESENTATION_REPRESENTATION('',(#287),
#497);
#497=(
GEOMETRIC_REPRESENTATION_CONTEXT(3)
GLOBAL_UNCERTAINTY_ASSIGNED_CONTEXT((#498))
GLOBAL_UNIT_ASSIGNED_CONTEXT((#501,#500,#499))
REPRESENTATION_CONTEXT('Ballnut','TOP_LEVEL_ASSEMBLY_PART')
);
#498=UNCERTAINTY_MEASURE_WITH_UNIT(LENGTH_MEASURE(5.E-6),#501,
'DISTANCE_ACCURACY_VALUE','Maximum Tolerance applied to model');
#499=(
NAMED_UNIT(*)
SI_UNIT($,.STERADIAN.)
SOLID_ANGLE_UNIT()
);
#500=(
NAMED_UNIT(*)
PLANE_ANGLE_UNIT()
SI_UNIT($,.RADIAN.)
);
#501=(
LENGTH_UNIT()
NAMED_UNIT(*)
SI_UNIT($,.METRE.)
);
#502=PRODUCT_DEFINITION_SHAPE('','',#503);
#503=PRODUCT_DEFINITION('','',#505,#504);
#504=PRODUCT_DEFINITION_CONTEXT('',#511,'design');
#505=PRODUCT_DEFINITION_FORMATION_WITH_SPECIFIED_SOURCE('','',#507,
 .NOT_KNOWN.);
#506=PRODUCT_RELATED_PRODUCT_CATEGORY('','',(#507));
#507=PRODUCT('Ballnut','Ballnut','Ballnut',(#509));
#508=PRODUCT_CATEGORY('','');
#509=PRODUCT_CONTEXT('',#511,'mechanical');
#510=APPLICATION_PROTOCOL_DEFINITION('international standard',
'ap242_managed_model_based_3d_engineering',2011,#511);
#511=APPLICATION_CONTEXT('managed model based 3d engineering');
ENDSEC;
END-ISO-10303-21;
