ISO-10303-21;
HEADER;
/* Generated by software containing ST-Developer
 * from STEP Tools, Inc. (www.steptools.com) 
 */
/* OPTION: using custom renumber hook */

FILE_DESCRIPTION(
/* description */ ('STEP AP242',
'CAx-IF Rec.Pracs.---Representation and Presentation of Product Manufa
cturing Information (PMI)---4.0---2014-10-13',
'CAx-IF Rec.Pracs.---3D Tessellated Geometry---0.4---2014-09-14','2;1'),

/* implementation_level */ '2;1');

FILE_NAME(
/* name */ '66bca575a93c5e5504c1184d',
/* time_stamp */ '2024-08-14T12:39:17Z',
/* author */ (''),
/* organization */ (''),
/* preprocessor_version */ 'ST-DEVELOPER v20',
/* originating_system */ '  ',
/* authorisation */ '  ');

FILE_SCHEMA (('AP242_MANAGED_MODEL_BASED_3D_ENGINEERING_MIM_LF { 1 0 10303 442 1 1 4 }'));
ENDSEC;

DATA;
#10=SHAPE_REPRESENTATION_RELATIONSHIP('','',#255,#11);
#11=ADVANCED_BREP_SHAPE_REPRESENTATION('',(#253),#431);
#12=CYLINDRICAL_SURFACE('',#265,0.046);
#13=CYLINDRICAL_SURFACE('',#267,0.046);
#14=CYLINDRICAL_SURFACE('',#278,0.016);
#15=CYLINDRICAL_SURFACE('',#282,0.029);
#16=CYLINDRICAL_SURFACE('',#283,0.029);
#17=CYLINDRICAL_SURFACE('',#286,0.0045);
#18=CYLINDRICAL_SURFACE('',#287,0.0045);
#19=CYLINDRICAL_SURFACE('',#288,0.0045);
#20=CYLINDRICAL_SURFACE('',#289,0.0045);
#21=LINE('',#381,#29);
#22=LINE('',#385,#30);
#23=LINE('',#387,#31);
#24=LINE('',#391,#32);
#25=LINE('',#393,#33);
#26=LINE('',#395,#34);
#27=LINE('',#409,#35);
#28=LINE('',#410,#36);
#29=VECTOR('',#306,1.);
#30=VECTOR('',#309,1.);
#31=VECTOR('',#312,1.);
#32=VECTOR('',#315,1.);
#33=VECTOR('',#318,1.);
#34=VECTOR('',#319,1.);
#35=VECTOR('',#334,1.);
#36=VECTOR('',#335,1.);
#37=ORIENTED_EDGE('',*,*,#89,.T.);
#38=ORIENTED_EDGE('',*,*,#90,.T.);
#39=ORIENTED_EDGE('',*,*,#91,.T.);
#40=ORIENTED_EDGE('',*,*,#92,.T.);
#41=ORIENTED_EDGE('',*,*,#93,.T.);
#42=ORIENTED_EDGE('',*,*,#94,.F.);
#43=ORIENTED_EDGE('',*,*,#95,.T.);
#44=ORIENTED_EDGE('',*,*,#96,.F.);
#45=ORIENTED_EDGE('',*,*,#97,.F.);
#46=ORIENTED_EDGE('',*,*,#96,.T.);
#47=ORIENTED_EDGE('',*,*,#98,.T.);
#48=ORIENTED_EDGE('',*,*,#99,.F.);
#49=ORIENTED_EDGE('',*,*,#100,.F.);
#50=ORIENTED_EDGE('',*,*,#101,.F.);
#51=ORIENTED_EDGE('',*,*,#94,.T.);
#52=ORIENTED_EDGE('',*,*,#102,.T.);
#53=ORIENTED_EDGE('',*,*,#103,.F.);
#54=ORIENTED_EDGE('',*,*,#104,.T.);
#55=ORIENTED_EDGE('',*,*,#105,.T.);
#56=ORIENTED_EDGE('',*,*,#106,.T.);
#57=ORIENTED_EDGE('',*,*,#107,.T.);
#58=ORIENTED_EDGE('',*,*,#108,.F.);
#59=ORIENTED_EDGE('',*,*,#99,.T.);
#60=ORIENTED_EDGE('',*,*,#109,.T.);
#61=ORIENTED_EDGE('',*,*,#103,.T.);
#62=ORIENTED_EDGE('',*,*,#110,.F.);
#63=ORIENTED_EDGE('',*,*,#111,.T.);
#64=ORIENTED_EDGE('',*,*,#112,.F.);
#65=ORIENTED_EDGE('',*,*,#112,.T.);
#66=ORIENTED_EDGE('',*,*,#113,.F.);
#67=ORIENTED_EDGE('',*,*,#113,.T.);
#68=ORIENTED_EDGE('',*,*,#114,.F.);
#69=ORIENTED_EDGE('',*,*,#114,.T.);
#70=ORIENTED_EDGE('',*,*,#93,.F.);
#71=ORIENTED_EDGE('',*,*,#108,.T.);
#72=ORIENTED_EDGE('',*,*,#111,.F.);
#73=ORIENTED_EDGE('',*,*,#97,.T.);
#74=ORIENTED_EDGE('',*,*,#100,.T.);
#75=ORIENTED_EDGE('',*,*,#110,.T.);
#76=ORIENTED_EDGE('',*,*,#102,.F.);
#77=ORIENTED_EDGE('',*,*,#101,.T.);
#78=ORIENTED_EDGE('',*,*,#109,.F.);
#79=ORIENTED_EDGE('',*,*,#98,.F.);
#80=ORIENTED_EDGE('',*,*,#95,.F.);
#81=ORIENTED_EDGE('',*,*,#92,.F.);
#82=ORIENTED_EDGE('',*,*,#107,.F.);
#83=ORIENTED_EDGE('',*,*,#91,.F.);
#84=ORIENTED_EDGE('',*,*,#106,.F.);
#85=ORIENTED_EDGE('',*,*,#90,.F.);
#86=ORIENTED_EDGE('',*,*,#105,.F.);
#87=ORIENTED_EDGE('',*,*,#89,.F.);
#88=ORIENTED_EDGE('',*,*,#104,.F.);
#89=EDGE_CURVE('',#115,#115,#137,.F.);
#90=EDGE_CURVE('',#116,#116,#138,.F.);
#91=EDGE_CURVE('',#117,#117,#139,.F.);
#92=EDGE_CURVE('',#118,#118,#140,.F.);
#93=EDGE_CURVE('',#119,#119,#141,.T.);
#94=EDGE_CURVE('',#120,#121,#142,.T.);
#95=EDGE_CURVE('',#120,#122,#21,.T.);
#96=EDGE_CURVE('',#123,#122,#143,.T.);
#97=EDGE_CURVE('',#121,#123,#22,.T.);
#98=EDGE_CURVE('',#122,#124,#23,.T.);
#99=EDGE_CURVE('',#125,#124,#144,.T.);
#100=EDGE_CURVE('',#123,#125,#24,.T.);
#101=EDGE_CURVE('',#120,#126,#25,.T.);
#102=EDGE_CURVE('',#121,#127,#26,.T.);
#103=EDGE_CURVE('',#126,#127,#145,.T.);
#104=EDGE_CURVE('',#128,#128,#146,.T.);
#105=EDGE_CURVE('',#129,#129,#147,.T.);
#106=EDGE_CURVE('',#130,#130,#148,.T.);
#107=EDGE_CURVE('',#131,#131,#149,.T.);
#108=EDGE_CURVE('',#132,#132,#150,.T.);
#109=EDGE_CURVE('',#124,#126,#27,.T.);
#110=EDGE_CURVE('',#125,#127,#28,.T.);
#111=EDGE_CURVE('',#133,#133,#151,.T.);
#112=EDGE_CURVE('',#134,#134,#152,.T.);
#113=EDGE_CURVE('',#135,#135,#153,.T.);
#114=EDGE_CURVE('',#136,#136,#154,.T.);
#115=VERTEX_POINT('',#369);
#116=VERTEX_POINT('',#371);
#117=VERTEX_POINT('',#373);
#118=VERTEX_POINT('',#375);
#119=VERTEX_POINT('',#377);
#120=VERTEX_POINT('',#379);
#121=VERTEX_POINT('',#380);
#122=VERTEX_POINT('',#382);
#123=VERTEX_POINT('',#384);
#124=VERTEX_POINT('',#388);
#125=VERTEX_POINT('',#390);
#126=VERTEX_POINT('',#394);
#127=VERTEX_POINT('',#396);
#128=VERTEX_POINT('',#400);
#129=VERTEX_POINT('',#402);
#130=VERTEX_POINT('',#404);
#131=VERTEX_POINT('',#406);
#132=VERTEX_POINT('',#408);
#133=VERTEX_POINT('',#413);
#134=VERTEX_POINT('',#415);
#135=VERTEX_POINT('',#418);
#136=VERTEX_POINT('',#421);
#137=CIRCLE('',#258,0.0045);
#138=CIRCLE('',#259,0.0045);
#139=CIRCLE('',#260,0.0045);
#140=CIRCLE('',#261,0.0045);
#141=CIRCLE('',#262,0.029);
#142=CIRCLE('',#263,0.046);
#143=CIRCLE('',#264,0.046);
#144=CIRCLE('',#266,0.046);
#145=CIRCLE('',#268,0.046);
#146=CIRCLE('',#270,0.0045);
#147=CIRCLE('',#271,0.0045);
#148=CIRCLE('',#272,0.0045);
#149=CIRCLE('',#273,0.0045);
#150=CIRCLE('',#274,0.029);
#151=CIRCLE('',#276,0.029);
#152=CIRCLE('',#277,0.016);
#153=CIRCLE('',#279,0.016);
#154=CIRCLE('',#281,0.029);
#155=EDGE_LOOP('',(#37));
#156=EDGE_LOOP('',(#38));
#157=EDGE_LOOP('',(#39));
#158=EDGE_LOOP('',(#40));
#159=EDGE_LOOP('',(#41));
#160=EDGE_LOOP('',(#42,#43,#44,#45));
#161=EDGE_LOOP('',(#46,#47,#48,#49));
#162=EDGE_LOOP('',(#50,#51,#52,#53));
#163=EDGE_LOOP('',(#54));
#164=EDGE_LOOP('',(#55));
#165=EDGE_LOOP('',(#56));
#166=EDGE_LOOP('',(#57));
#167=EDGE_LOOP('',(#58));
#168=EDGE_LOOP('',(#59,#60,#61,#62));
#169=EDGE_LOOP('',(#63));
#170=EDGE_LOOP('',(#64));
#171=EDGE_LOOP('',(#65));
#172=EDGE_LOOP('',(#66));
#173=EDGE_LOOP('',(#67));
#174=EDGE_LOOP('',(#68));
#175=EDGE_LOOP('',(#69));
#176=EDGE_LOOP('',(#70));
#177=EDGE_LOOP('',(#71));
#178=EDGE_LOOP('',(#72));
#179=EDGE_LOOP('',(#73,#74,#75,#76));
#180=EDGE_LOOP('',(#77,#78,#79,#80));
#181=EDGE_LOOP('',(#81));
#182=EDGE_LOOP('',(#82));
#183=EDGE_LOOP('',(#83));
#184=EDGE_LOOP('',(#84));
#185=EDGE_LOOP('',(#85));
#186=EDGE_LOOP('',(#86));
#187=EDGE_LOOP('',(#87));
#188=EDGE_LOOP('',(#88));
#189=FACE_BOUND('',#155,.T.);
#190=FACE_BOUND('',#156,.T.);
#191=FACE_BOUND('',#157,.T.);
#192=FACE_BOUND('',#158,.T.);
#193=FACE_BOUND('',#159,.T.);
#194=FACE_BOUND('',#160,.T.);
#195=FACE_BOUND('',#161,.T.);
#196=FACE_BOUND('',#162,.T.);
#197=FACE_BOUND('',#163,.T.);
#198=FACE_BOUND('',#164,.T.);
#199=FACE_BOUND('',#165,.T.);
#200=FACE_BOUND('',#166,.T.);
#201=FACE_BOUND('',#167,.T.);
#202=FACE_BOUND('',#168,.T.);
#203=FACE_BOUND('',#169,.T.);
#204=FACE_BOUND('',#170,.T.);
#205=FACE_BOUND('',#171,.T.);
#206=FACE_BOUND('',#172,.T.);
#207=FACE_BOUND('',#173,.T.);
#208=FACE_BOUND('',#174,.T.);
#209=FACE_BOUND('',#175,.T.);
#210=FACE_BOUND('',#176,.T.);
#211=FACE_BOUND('',#177,.T.);
#212=FACE_BOUND('',#178,.T.);
#213=FACE_BOUND('',#179,.T.);
#214=FACE_BOUND('',#180,.T.);
#215=FACE_BOUND('',#181,.T.);
#216=FACE_BOUND('',#182,.T.);
#217=FACE_BOUND('',#183,.T.);
#218=FACE_BOUND('',#184,.T.);
#219=FACE_BOUND('',#185,.T.);
#220=FACE_BOUND('',#186,.T.);
#221=FACE_BOUND('',#187,.T.);
#222=FACE_BOUND('',#188,.T.);
#223=PLANE('',#257);
#224=PLANE('',#269);
#225=PLANE('',#275);
#226=PLANE('',#280);
#227=PLANE('',#284);
#228=PLANE('',#285);
#229=ADVANCED_FACE('',(#189,#190,#191,#192,#193,#194),#223,.T.);
#230=ADVANCED_FACE('',(#195),#12,.T.);
#231=ADVANCED_FACE('',(#196),#13,.T.);
#232=ADVANCED_FACE('',(#197,#198,#199,#200,#201,#202),#224,.T.);
#233=ADVANCED_FACE('',(#203,#204),#225,.T.);
#234=ADVANCED_FACE('',(#205,#206),#14,.F.);
#235=ADVANCED_FACE('',(#207,#208),#226,.T.);
#236=ADVANCED_FACE('',(#209,#210),#15,.T.);
#237=ADVANCED_FACE('',(#211,#212),#16,.T.);
#238=ADVANCED_FACE('',(#213),#227,.F.);
#239=ADVANCED_FACE('',(#214),#228,.T.);
#240=ADVANCED_FACE('',(#215,#216),#17,.F.);
#241=ADVANCED_FACE('',(#217,#218),#18,.F.);
#242=ADVANCED_FACE('',(#219,#220),#19,.F.);
#243=ADVANCED_FACE('',(#221,#222),#20,.F.);
#244=CLOSED_SHELL('',(#229,#230,#231,#232,#233,#234,#235,#236,#237,#238,
#239,#240,#241,#242,#243));
#245=STYLED_ITEM('',(#246),#253);
#246=PRESENTATION_STYLE_ASSIGNMENT((#247));
#247=SURFACE_STYLE_USAGE(.BOTH.,#248);
#248=SURFACE_SIDE_STYLE('',(#249));
#249=SURFACE_STYLE_FILL_AREA(#250);
#250=FILL_AREA_STYLE('',(#251));
#251=FILL_AREA_STYLE_COLOUR('',#252);
#252=COLOUR_RGB('',0.615686274509804,0.811764705882353,0.929411764705882);
#253=MANIFOLD_SOLID_BREP('Ballnut',#244);
#254=SHAPE_DEFINITION_REPRESENTATION(#436,#255);
#255=SHAPE_REPRESENTATION('Ballnut',(#256),#431);
#256=AXIS2_PLACEMENT_3D('',#366,#290,#291);
#257=AXIS2_PLACEMENT_3D('',#367,#292,#293);
#258=AXIS2_PLACEMENT_3D('',#368,#294,#295);
#259=AXIS2_PLACEMENT_3D('',#370,#296,#297);
#260=AXIS2_PLACEMENT_3D('',#372,#298,#299);
#261=AXIS2_PLACEMENT_3D('',#374,#300,#301);
#262=AXIS2_PLACEMENT_3D('',#376,#302,#303);
#263=AXIS2_PLACEMENT_3D('',#378,#304,#305);
#264=AXIS2_PLACEMENT_3D('',#383,#307,#308);
#265=AXIS2_PLACEMENT_3D('',#386,#310,#311);
#266=AXIS2_PLACEMENT_3D('',#389,#313,#314);
#267=AXIS2_PLACEMENT_3D('',#392,#316,#317);
#268=AXIS2_PLACEMENT_3D('',#397,#320,#321);
#269=AXIS2_PLACEMENT_3D('',#398,#322,#323);
#270=AXIS2_PLACEMENT_3D('',#399,#324,#325);
#271=AXIS2_PLACEMENT_3D('',#401,#326,#327);
#272=AXIS2_PLACEMENT_3D('',#403,#328,#329);
#273=AXIS2_PLACEMENT_3D('',#405,#330,#331);
#274=AXIS2_PLACEMENT_3D('',#407,#332,#333);
#275=AXIS2_PLACEMENT_3D('',#411,#336,#337);
#276=AXIS2_PLACEMENT_3D('',#412,#338,#339);
#277=AXIS2_PLACEMENT_3D('',#414,#340,#341);
#278=AXIS2_PLACEMENT_3D('',#416,#342,#343);
#279=AXIS2_PLACEMENT_3D('',#417,#344,#345);
#280=AXIS2_PLACEMENT_3D('',#419,#346,#347);
#281=AXIS2_PLACEMENT_3D('',#420,#348,#349);
#282=AXIS2_PLACEMENT_3D('',#422,#350,#351);
#283=AXIS2_PLACEMENT_3D('',#423,#352,#353);
#284=AXIS2_PLACEMENT_3D('',#424,#354,#355);
#285=AXIS2_PLACEMENT_3D('',#425,#356,#357);
#286=AXIS2_PLACEMENT_3D('',#426,#358,#359);
#287=AXIS2_PLACEMENT_3D('',#427,#360,#361);
#288=AXIS2_PLACEMENT_3D('',#428,#362,#363);
#289=AXIS2_PLACEMENT_3D('',#429,#364,#365);
#290=DIRECTION('',(0.,0.,1.));
#291=DIRECTION('',(1.,0.,0.));
#292=DIRECTION('',(1.,0.,0.));
#293=DIRECTION('',(0.,0.,-1.));
#294=DIRECTION('',(1.,0.,0.));
#295=DIRECTION('',(0.,0.,-1.));
#296=DIRECTION('',(1.,0.,0.));
#297=DIRECTION('',(0.,0.,-1.));
#298=DIRECTION('',(1.,0.,0.));
#299=DIRECTION('',(0.,0.,-1.));
#300=DIRECTION('',(1.,0.,0.));
#301=DIRECTION('',(0.,0.,-1.));
#302=DIRECTION('',(-1.,0.,0.));
#303=DIRECTION('',(0.,0.,1.));
#304=DIRECTION('',(-1.,0.,0.));
#305=DIRECTION('',(0.,0.,1.));
#306=DIRECTION('',(0.,7.76571367325311E-17,1.));
#307=DIRECTION('',(-1.,0.,0.));
#308=DIRECTION('',(0.,0.,1.));
#309=DIRECTION('',(0.,7.6756761424075E-17,1.));
#310=DIRECTION('',(-1.,0.,0.));
#311=DIRECTION('',(0.,0.,1.));
#312=DIRECTION('',(-1.,0.,0.));
#313=DIRECTION('',(-1.,0.,0.));
#314=DIRECTION('',(0.,0.,1.));
#315=DIRECTION('',(-1.,0.,0.));
#316=DIRECTION('',(-1.,0.,0.));
#317=DIRECTION('',(0.,0.,1.));
#318=DIRECTION('',(-1.,0.,0.));
#319=DIRECTION('',(-1.,0.,0.));
#320=DIRECTION('',(-1.,0.,0.));
#321=DIRECTION('',(0.,0.,1.));
#322=DIRECTION('',(-1.,0.,0.));
#323=DIRECTION('',(0.,0.,1.));
#324=DIRECTION('',(1.,0.,0.));
#325=DIRECTION('',(0.,0.,-1.));
#326=DIRECTION('',(1.,0.,0.));
#327=DIRECTION('',(0.,0.,-1.));
#328=DIRECTION('',(1.,0.,0.));
#329=DIRECTION('',(0.,0.,-1.));
#330=DIRECTION('',(1.,0.,0.));
#331=DIRECTION('',(0.,0.,-1.));
#332=DIRECTION('',(-1.,0.,0.));
#333=DIRECTION('',(0.,0.,1.));
#334=DIRECTION('',(0.,-7.76571367325311E-17,-1.));
#335=DIRECTION('',(0.,-7.6756761424075E-17,-1.));
#336=DIRECTION('',(-1.,0.,0.));
#337=DIRECTION('',(0.,0.,1.));
#338=DIRECTION('',(-1.,0.,0.));
#339=DIRECTION('',(0.,0.,1.));
#340=DIRECTION('',(-1.,0.,0.));
#341=DIRECTION('',(0.,0.,1.));
#342=DIRECTION('',(-1.,0.,0.));
#343=DIRECTION('',(0.,0.,1.));
#344=DIRECTION('',(-1.,0.,0.));
#345=DIRECTION('',(0.,0.,1.));
#346=DIRECTION('',(1.,0.,0.));
#347=DIRECTION('',(0.,0.,-1.));
#348=DIRECTION('',(-1.,0.,0.));
#349=DIRECTION('',(0.,0.,1.));
#350=DIRECTION('',(-1.,0.,0.));
#351=DIRECTION('',(0.,0.,1.));
#352=DIRECTION('',(-1.,0.,0.));
#353=DIRECTION('',(0.,0.,1.));
#354=DIRECTION('',(0.,1.,-7.6756761424075E-17));
#355=DIRECTION('',(0.,7.6756761424075E-17,1.));
#356=DIRECTION('',(0.,1.,-7.76571367325311E-17));
#357=DIRECTION('',(0.,7.76571367325311E-17,1.));
#358=DIRECTION('',(1.,0.,0.));
#359=DIRECTION('',(0.,0.,-1.));
#360=DIRECTION('',(1.,0.,0.));
#361=DIRECTION('',(0.,0.,-1.));
#362=DIRECTION('',(1.,0.,0.));
#363=DIRECTION('',(0.,0.,-1.));
#364=DIRECTION('',(1.,0.,0.));
#365=DIRECTION('',(0.,0.,-1.));
#366=CARTESIAN_POINT('',(0.,0.,0.));
#367=CARTESIAN_POINT('',(0.003,0.,0.0375));
#368=CARTESIAN_POINT('',(0.003,0.0185,-0.0320429399400242));
#369=CARTESIAN_POINT('',(0.003,0.0185,-0.0365429399400242));
#370=CARTESIAN_POINT('',(0.003,-0.0185,-0.0320429399400242));
#371=CARTESIAN_POINT('',(0.003,-0.0185,-0.0365429399400242));
#372=CARTESIAN_POINT('',(0.003,-0.0185,0.0320429399400242));
#373=CARTESIAN_POINT('',(0.003,-0.0185,0.0275429399400242));
#374=CARTESIAN_POINT('',(0.003,0.0185,0.0320429399400242));
#375=CARTESIAN_POINT('',(0.003,0.0185,0.0275429399400242));
#376=CARTESIAN_POINT('',(0.003,0.,0.));
#377=CARTESIAN_POINT('',(0.003,0.,0.029));
#378=CARTESIAN_POINT('',(0.003,0.,0.));
#379=CARTESIAN_POINT('',(0.003,0.03,-0.0348711915483254));
#380=CARTESIAN_POINT('',(0.003,-0.03,-0.0348711915483254));
#381=CARTESIAN_POINT('',(0.003,0.03,0.0375));
#382=CARTESIAN_POINT('',(0.003,0.03,0.0348711915483254));
#383=CARTESIAN_POINT('',(0.003,0.,0.));
#384=CARTESIAN_POINT('',(0.003,-0.03,0.0348711915483254));
#385=CARTESIAN_POINT('',(0.003,-0.03,0.0375));
#386=CARTESIAN_POINT('',(0.0788924116641283,0.,0.));
#387=CARTESIAN_POINT('',(0.016,0.03,0.0348711915483254));
#388=CARTESIAN_POINT('',(-0.009,0.03,0.0348711915483254));
#389=CARTESIAN_POINT('',(-0.009,0.,0.));
#390=CARTESIAN_POINT('',(-0.009,-0.03,0.0348711915483254));
#391=CARTESIAN_POINT('',(0.016,-0.03,0.0348711915483254));
#392=CARTESIAN_POINT('',(0.0788924116641283,0.,0.));
#393=CARTESIAN_POINT('',(0.016,0.03,-0.0348711915483254));
#394=CARTESIAN_POINT('',(-0.009,0.03,-0.0348711915483254));
#395=CARTESIAN_POINT('',(0.016,-0.03,-0.0348711915483254));
#396=CARTESIAN_POINT('',(-0.009,-0.03,-0.0348711915483254));
#397=CARTESIAN_POINT('',(-0.009,0.,0.));
#398=CARTESIAN_POINT('',(-0.009,0.,0.0375));
#399=CARTESIAN_POINT('',(-0.009,0.0185,-0.0320429399400242));
#400=CARTESIAN_POINT('',(-0.009,0.0185,-0.0365429399400242));
#401=CARTESIAN_POINT('',(-0.009,-0.0185,-0.0320429399400242));
#402=CARTESIAN_POINT('',(-0.009,-0.0185,-0.0365429399400242));
#403=CARTESIAN_POINT('',(-0.009,-0.0185,0.0320429399400242));
#404=CARTESIAN_POINT('',(-0.009,-0.0185,0.0275429399400242));
#405=CARTESIAN_POINT('',(-0.009,0.0185,0.0320429399400242));
#406=CARTESIAN_POINT('',(-0.009,0.0185,0.0275429399400242));
#407=CARTESIAN_POINT('',(-0.009,0.,0.));
#408=CARTESIAN_POINT('',(-0.009,0.,0.029));
#409=CARTESIAN_POINT('',(-0.009,0.03,-0.00228365942953151));
#410=CARTESIAN_POINT('',(-0.009,-0.03,-0.00280772522091865));
#411=CARTESIAN_POINT('',(-0.025,0.,0.0225));
#412=CARTESIAN_POINT('',(-0.025,0.,0.));
#413=CARTESIAN_POINT('',(-0.025,0.,0.029));
#414=CARTESIAN_POINT('',(-0.025,0.,0.));
#415=CARTESIAN_POINT('',(-0.025,0.,0.016));
#416=CARTESIAN_POINT('',(0.0788924116641283,0.,0.));
#417=CARTESIAN_POINT('',(0.057,0.,0.));
#418=CARTESIAN_POINT('',(0.057,0.,0.016));
#419=CARTESIAN_POINT('',(0.057,0.,0.0225));
#420=CARTESIAN_POINT('',(0.057,0.,0.));
#421=CARTESIAN_POINT('',(0.057,0.,0.029));
#422=CARTESIAN_POINT('',(0.0788924116641283,0.,0.));
#423=CARTESIAN_POINT('',(0.0788924116641283,0.,0.));
#424=CARTESIAN_POINT('',(0.016,-0.03,-0.00280772522091865));
#425=CARTESIAN_POINT('',(0.016,0.03,-0.00228365942953151));
#426=CARTESIAN_POINT('',(-0.009,0.0185,0.0320429399400242));
#427=CARTESIAN_POINT('',(-0.009,-0.0185,0.0320429399400242));
#428=CARTESIAN_POINT('',(-0.009,-0.0185,-0.0320429399400242));
#429=CARTESIAN_POINT('',(-0.009,0.0185,-0.0320429399400242));
#430=MECHANICAL_DESIGN_GEOMETRIC_PRESENTATION_REPRESENTATION('',(#245),
#431);
#431=(
GEOMETRIC_REPRESENTATION_CONTEXT(3)
GLOBAL_UNCERTAINTY_ASSIGNED_CONTEXT((#432))
GLOBAL_UNIT_ASSIGNED_CONTEXT((#435,#434,#433))
REPRESENTATION_CONTEXT('Ballnut','TOP_LEVEL_ASSEMBLY_PART')
);
#432=UNCERTAINTY_MEASURE_WITH_UNIT(LENGTH_MEASURE(5.E-6),#435,
'DISTANCE_ACCURACY_VALUE','Maximum Tolerance applied to model');
#433=(
NAMED_UNIT(*)
SI_UNIT($,.STERADIAN.)
SOLID_ANGLE_UNIT()
);
#434=(
NAMED_UNIT(*)
PLANE_ANGLE_UNIT()
SI_UNIT($,.RADIAN.)
);
#435=(
LENGTH_UNIT()
NAMED_UNIT(*)
SI_UNIT($,.METRE.)
);
#436=PRODUCT_DEFINITION_SHAPE('','',#437);
#437=PRODUCT_DEFINITION('','',#439,#438);
#438=PRODUCT_DEFINITION_CONTEXT('',#445,'design');
#439=PRODUCT_DEFINITION_FORMATION_WITH_SPECIFIED_SOURCE('','',#441,
 .NOT_KNOWN.);
#440=PRODUCT_RELATED_PRODUCT_CATEGORY('','',(#441));
#441=PRODUCT('Ballnut','Ballnut','Ballnut',(#443));
#442=PRODUCT_CATEGORY('','');
#443=PRODUCT_CONTEXT('',#445,'mechanical');
#444=APPLICATION_PROTOCOL_DEFINITION('international standard',
'ap242_managed_model_based_3d_engineering',2011,#445);
#445=APPLICATION_CONTEXT('managed model based 3d engineering');
ENDSEC;
END-ISO-10303-21;
