ISO-10303-21;
HEADER;
/* Generated by software containing ST-Developer
 * from STEP Tools, Inc. (www.steptools.com) 
 */
/* OPTION: using custom renumber hook */

FILE_DESCRIPTION(
/* description */ ('STEP AP242',
'CAx-IF Rec.Pracs.---Representation and Presentation of Product Manufa
cturing Information (PMI)---4.0---2014-10-13',
'CAx-IF Rec.Pracs.---3D Tessellated Geometry---0.4---2014-09-14','2;1'),

/* implementation_level */ '2;1');

FILE_NAME(
/* name */ '66e577f7308b0c4008464dc3',
/* time_stamp */ '2024-09-14T11:48:07Z',
/* author */ (''),
/* organization */ (''),
/* preprocessor_version */ 'ST-DEVELOPER v20',
/* originating_system */ '  ',
/* authorisation */ '  ');

FILE_SCHEMA (('AP242_MANAGED_MODEL_BASED_3D_ENGINEERING_MIM_LF { 1 0 10303 442 1 1 4 }'));
ENDSEC;

DATA;
#10=SHAPE_REPRESENTATION_RELATIONSHIP('','',#275,#11);
#11=ADVANCED_BREP_SHAPE_REPRESENTATION('',(#273),#479);
#12=PLANE('',#283);
#13=PLANE('',#292);
#14=PLANE('',#298);
#15=PLANE('',#300);
#16=PLANE('',#304);
#17=PLANE('',#305);
#18=B_SPLINE_CURVE_WITH_KNOTS('',3,(#399,#400,#401,#402,#403,#404,#405,
#406,#407,#408,#409),.UNSPECIFIED.,.T.,.F.,(1,1,1,1,1,1,1,1,1,1,1,1,1,1,
1),(-0.00586329627050258,-0.00390886418033505,-0.00195443209016753,4.23222133388007E-20,
0.00195443209016753,0.00390886418033505,0.00586329627050258,0.00781772836067011,
0.00977216045083763,0.0117265925410052,0.0136810246311727,0.0156354567213402,
0.0175898888115077,0.0195443209016753,0.0214987529918428),.UNSPECIFIED.);
#19=B_SPLINE_CURVE_WITH_KNOTS('',3,(#416,#417,#418,#419,#420,#421,#422,
#423,#424,#425,#426),.UNSPECIFIED.,.T.,.F.,(1,1,1,1,1,1,1,1,1,1,1,1,1,1,
1),(-0.00587733237806147,-0.00391822158537431,-0.00195911079268716,3.25296944436741E-19,
0.00195911079268716,0.00391822158537431,0.00587733237806147,0.00783644317074863,
0.00979555396343579,0.0117546647561229,0.0137137755488101,0.0156728863414973,
0.0176319971341844,0.0195911079268716,0.0215502187195587),.UNSPECIFIED.);
#20=LINE('',#394,#28);
#21=LINE('',#398,#29);
#22=LINE('',#442,#30);
#23=LINE('',#443,#31);
#24=LINE('',#445,#32);
#25=LINE('',#447,#33);
#26=LINE('',#461,#34);
#27=LINE('',#462,#35);
#28=VECTOR('',#317,1.);
#29=VECTOR('',#320,1.);
#30=VECTOR('',#341,1.);
#31=VECTOR('',#342,1.);
#32=VECTOR('',#345,1.);
#33=VECTOR('',#346,1.);
#34=VECTOR('',#361,1.);
#35=VECTOR('',#362,1.);
#36=ORIENTED_EDGE('',*,*,#92,.T.);
#37=ORIENTED_EDGE('',*,*,#93,.T.);
#38=ORIENTED_EDGE('',*,*,#94,.F.);
#39=ORIENTED_EDGE('',*,*,#95,.F.);
#40=ORIENTED_EDGE('',*,*,#96,.T.);
#41=ORIENTED_EDGE('',*,*,#97,.T.);
#42=ORIENTED_EDGE('',*,*,#98,.F.);
#43=ORIENTED_EDGE('',*,*,#99,.T.);
#44=ORIENTED_EDGE('',*,*,#100,.T.);
#45=ORIENTED_EDGE('',*,*,#101,.T.);
#46=ORIENTED_EDGE('',*,*,#102,.T.);
#47=ORIENTED_EDGE('',*,*,#103,.T.);
#48=ORIENTED_EDGE('',*,*,#104,.T.);
#49=ORIENTED_EDGE('',*,*,#105,.F.);
#50=ORIENTED_EDGE('',*,*,#106,.T.);
#51=ORIENTED_EDGE('',*,*,#92,.F.);
#52=ORIENTED_EDGE('',*,*,#107,.F.);
#53=ORIENTED_EDGE('',*,*,#108,.F.);
#54=ORIENTED_EDGE('',*,*,#105,.T.);
#55=ORIENTED_EDGE('',*,*,#109,.T.);
#56=ORIENTED_EDGE('',*,*,#110,.F.);
#57=ORIENTED_EDGE('',*,*,#111,.T.);
#58=ORIENTED_EDGE('',*,*,#112,.T.);
#59=ORIENTED_EDGE('',*,*,#113,.T.);
#60=ORIENTED_EDGE('',*,*,#114,.T.);
#61=ORIENTED_EDGE('',*,*,#115,.F.);
#62=ORIENTED_EDGE('',*,*,#94,.T.);
#63=ORIENTED_EDGE('',*,*,#116,.T.);
#64=ORIENTED_EDGE('',*,*,#110,.T.);
#65=ORIENTED_EDGE('',*,*,#117,.F.);
#66=ORIENTED_EDGE('',*,*,#118,.T.);
#67=ORIENTED_EDGE('',*,*,#97,.F.);
#68=ORIENTED_EDGE('',*,*,#98,.T.);
#69=ORIENTED_EDGE('',*,*,#119,.F.);
#70=ORIENTED_EDGE('',*,*,#119,.T.);
#71=ORIENTED_EDGE('',*,*,#104,.F.);
#72=ORIENTED_EDGE('',*,*,#115,.T.);
#73=ORIENTED_EDGE('',*,*,#118,.F.);
#74=ORIENTED_EDGE('',*,*,#107,.T.);
#75=ORIENTED_EDGE('',*,*,#95,.T.);
#76=ORIENTED_EDGE('',*,*,#117,.T.);
#77=ORIENTED_EDGE('',*,*,#109,.F.);
#78=ORIENTED_EDGE('',*,*,#108,.T.);
#79=ORIENTED_EDGE('',*,*,#116,.F.);
#80=ORIENTED_EDGE('',*,*,#93,.F.);
#81=ORIENTED_EDGE('',*,*,#106,.F.);
#82=ORIENTED_EDGE('',*,*,#103,.F.);
#83=ORIENTED_EDGE('',*,*,#114,.F.);
#84=ORIENTED_EDGE('',*,*,#102,.F.);
#85=ORIENTED_EDGE('',*,*,#113,.F.);
#86=ORIENTED_EDGE('',*,*,#101,.F.);
#87=ORIENTED_EDGE('',*,*,#112,.F.);
#88=ORIENTED_EDGE('',*,*,#100,.F.);
#89=ORIENTED_EDGE('',*,*,#111,.F.);
#90=ORIENTED_EDGE('',*,*,#96,.F.);
#91=ORIENTED_EDGE('',*,*,#99,.F.);
#92=EDGE_CURVE('',#120,#121,#144,.T.);
#93=EDGE_CURVE('',#121,#122,#20,.T.);
#94=EDGE_CURVE('',#123,#122,#145,.T.);
#95=EDGE_CURVE('',#120,#123,#21,.T.);
#96=EDGE_CURVE('',#124,#124,#18,.T.);
#97=EDGE_CURVE('',#125,#125,#146,.T.);
#98=EDGE_CURVE('',#126,#126,#147,.T.);
#99=EDGE_CURVE('',#127,#127,#19,.T.);
#100=EDGE_CURVE('',#128,#128,#148,.F.);
#101=EDGE_CURVE('',#129,#129,#149,.F.);
#102=EDGE_CURVE('',#130,#130,#150,.F.);
#103=EDGE_CURVE('',#131,#131,#151,.F.);
#104=EDGE_CURVE('',#132,#132,#152,.T.);
#105=EDGE_CURVE('',#133,#134,#153,.T.);
#106=EDGE_CURVE('',#133,#121,#22,.T.);
#107=EDGE_CURVE('',#134,#120,#23,.T.);
#108=EDGE_CURVE('',#133,#135,#24,.T.);
#109=EDGE_CURVE('',#134,#136,#25,.T.);
#110=EDGE_CURVE('',#135,#136,#154,.T.);
#111=EDGE_CURVE('',#137,#137,#155,.T.);
#112=EDGE_CURVE('',#138,#138,#156,.T.);
#113=EDGE_CURVE('',#139,#139,#157,.T.);
#114=EDGE_CURVE('',#140,#140,#158,.T.);
#115=EDGE_CURVE('',#141,#141,#159,.T.);
#116=EDGE_CURVE('',#122,#135,#26,.T.);
#117=EDGE_CURVE('',#123,#136,#27,.T.);
#118=EDGE_CURVE('',#142,#142,#160,.T.);
#119=EDGE_CURVE('',#143,#143,#161,.T.);
#120=VERTEX_POINT('',#392);
#121=VERTEX_POINT('',#393);
#122=VERTEX_POINT('',#395);
#123=VERTEX_POINT('',#397);
#124=VERTEX_POINT('',#410);
#125=VERTEX_POINT('',#413);
#126=VERTEX_POINT('',#415);
#127=VERTEX_POINT('',#427);
#128=VERTEX_POINT('',#430);
#129=VERTEX_POINT('',#432);
#130=VERTEX_POINT('',#434);
#131=VERTEX_POINT('',#436);
#132=VERTEX_POINT('',#438);
#133=VERTEX_POINT('',#440);
#134=VERTEX_POINT('',#441);
#135=VERTEX_POINT('',#446);
#136=VERTEX_POINT('',#448);
#137=VERTEX_POINT('',#452);
#138=VERTEX_POINT('',#454);
#139=VERTEX_POINT('',#456);
#140=VERTEX_POINT('',#458);
#141=VERTEX_POINT('',#460);
#142=VERTEX_POINT('',#465);
#143=VERTEX_POINT('',#468);
#144=CIRCLE('',#278,0.035);
#145=CIRCLE('',#279,0.035);
#146=CIRCLE('',#281,0.01205);
#147=CIRCLE('',#282,0.01205);
#148=CIRCLE('',#284,0.0033);
#149=CIRCLE('',#285,0.0033);
#150=CIRCLE('',#286,0.0033);
#151=CIRCLE('',#287,0.0033);
#152=CIRCLE('',#288,0.0235);
#153=CIRCLE('',#289,0.035);
#154=CIRCLE('',#291,0.035);
#155=CIRCLE('',#293,0.0033);
#156=CIRCLE('',#294,0.0033);
#157=CIRCLE('',#295,0.0033);
#158=CIRCLE('',#296,0.0033);
#159=CIRCLE('',#297,0.0235);
#160=CIRCLE('',#299,0.0235);
#161=CIRCLE('',#301,0.0235);
#162=EDGE_LOOP('',(#36,#37,#38,#39));
#163=EDGE_LOOP('',(#40));
#164=EDGE_LOOP('',(#41));
#165=EDGE_LOOP('',(#42));
#166=EDGE_LOOP('',(#43));
#167=EDGE_LOOP('',(#44));
#168=EDGE_LOOP('',(#45));
#169=EDGE_LOOP('',(#46));
#170=EDGE_LOOP('',(#47));
#171=EDGE_LOOP('',(#48));
#172=EDGE_LOOP('',(#49,#50,#51,#52));
#173=EDGE_LOOP('',(#53,#54,#55,#56));
#174=EDGE_LOOP('',(#57));
#175=EDGE_LOOP('',(#58));
#176=EDGE_LOOP('',(#59));
#177=EDGE_LOOP('',(#60));
#178=EDGE_LOOP('',(#61));
#179=EDGE_LOOP('',(#62,#63,#64,#65));
#180=EDGE_LOOP('',(#66));
#181=EDGE_LOOP('',(#67));
#182=EDGE_LOOP('',(#68));
#183=EDGE_LOOP('',(#69));
#184=EDGE_LOOP('',(#70));
#185=EDGE_LOOP('',(#71));
#186=EDGE_LOOP('',(#72));
#187=EDGE_LOOP('',(#73));
#188=EDGE_LOOP('',(#74,#75,#76,#77));
#189=EDGE_LOOP('',(#78,#79,#80,#81));
#190=EDGE_LOOP('',(#82));
#191=EDGE_LOOP('',(#83));
#192=EDGE_LOOP('',(#84));
#193=EDGE_LOOP('',(#85));
#194=EDGE_LOOP('',(#86));
#195=EDGE_LOOP('',(#87));
#196=EDGE_LOOP('',(#88));
#197=EDGE_LOOP('',(#89));
#198=EDGE_LOOP('',(#90));
#199=EDGE_LOOP('',(#91));
#200=FACE_BOUND('',#162,.T.);
#201=FACE_BOUND('',#163,.T.);
#202=FACE_BOUND('',#164,.T.);
#203=FACE_BOUND('',#165,.T.);
#204=FACE_BOUND('',#166,.T.);
#205=FACE_BOUND('',#167,.T.);
#206=FACE_BOUND('',#168,.T.);
#207=FACE_BOUND('',#169,.T.);
#208=FACE_BOUND('',#170,.T.);
#209=FACE_BOUND('',#171,.T.);
#210=FACE_BOUND('',#172,.T.);
#211=FACE_BOUND('',#173,.T.);
#212=FACE_BOUND('',#174,.T.);
#213=FACE_BOUND('',#175,.T.);
#214=FACE_BOUND('',#176,.T.);
#215=FACE_BOUND('',#177,.T.);
#216=FACE_BOUND('',#178,.T.);
#217=FACE_BOUND('',#179,.T.);
#218=FACE_BOUND('',#180,.T.);
#219=FACE_BOUND('',#181,.T.);
#220=FACE_BOUND('',#182,.T.);
#221=FACE_BOUND('',#183,.T.);
#222=FACE_BOUND('',#184,.T.);
#223=FACE_BOUND('',#185,.T.);
#224=FACE_BOUND('',#186,.T.);
#225=FACE_BOUND('',#187,.T.);
#226=FACE_BOUND('',#188,.T.);
#227=FACE_BOUND('',#189,.T.);
#228=FACE_BOUND('',#190,.T.);
#229=FACE_BOUND('',#191,.T.);
#230=FACE_BOUND('',#192,.T.);
#231=FACE_BOUND('',#193,.T.);
#232=FACE_BOUND('',#194,.T.);
#233=FACE_BOUND('',#195,.T.);
#234=FACE_BOUND('',#196,.T.);
#235=FACE_BOUND('',#197,.T.);
#236=FACE_BOUND('',#198,.T.);
#237=FACE_BOUND('',#199,.T.);
#238=CYLINDRICAL_SURFACE('',#277,0.035);
#239=CYLINDRICAL_SURFACE('',#280,0.01205);
#240=CYLINDRICAL_SURFACE('',#290,0.035);
#241=CYLINDRICAL_SURFACE('',#302,0.0235);
#242=CYLINDRICAL_SURFACE('',#303,0.0235);
#243=CYLINDRICAL_SURFACE('',#306,0.0033);
#244=CYLINDRICAL_SURFACE('',#307,0.0033);
#245=CYLINDRICAL_SURFACE('',#308,0.0033);
#246=CYLINDRICAL_SURFACE('',#309,0.0033);
#247=CYLINDRICAL_SURFACE('',#310,0.0025);
#248=ADVANCED_FACE('',(#200,#201),#238,.T.);
#249=ADVANCED_FACE('',(#202,#203,#204),#239,.F.);
#250=ADVANCED_FACE('',(#205,#206,#207,#208,#209,#210),#12,.T.);
#251=ADVANCED_FACE('',(#211),#240,.T.);
#252=ADVANCED_FACE('',(#212,#213,#214,#215,#216,#217),#13,.T.);
#253=ADVANCED_FACE('',(#218,#219),#14,.T.);
#254=ADVANCED_FACE('',(#220,#221),#15,.T.);
#255=ADVANCED_FACE('',(#222,#223),#241,.T.);
#256=ADVANCED_FACE('',(#224,#225),#242,.T.);
#257=ADVANCED_FACE('',(#226),#16,.F.);
#258=ADVANCED_FACE('',(#227),#17,.T.);
#259=ADVANCED_FACE('',(#228,#229),#243,.F.);
#260=ADVANCED_FACE('',(#230,#231),#244,.F.);
#261=ADVANCED_FACE('',(#232,#233),#245,.F.);
#262=ADVANCED_FACE('',(#234,#235),#246,.F.);
#263=ADVANCED_FACE('',(#236,#237),#247,.F.);
#264=CLOSED_SHELL('',(#248,#249,#250,#251,#252,#253,#254,#255,#256,#257,
#258,#259,#260,#261,#262,#263));
#265=STYLED_ITEM('',(#266),#273);
#266=PRESENTATION_STYLE_ASSIGNMENT((#267));
#267=SURFACE_STYLE_USAGE(.BOTH.,#268);
#268=SURFACE_SIDE_STYLE('',(#269));
#269=SURFACE_STYLE_FILL_AREA(#270);
#270=FILL_AREA_STYLE('',(#271));
#271=FILL_AREA_STYLE_COLOUR('',#272);
#272=COLOUR_RGB('',0.615686274509804,0.811764705882353,0.929411764705882);
#273=MANIFOLD_SOLID_BREP('Ball Nut',#264);
#274=SHAPE_DEFINITION_REPRESENTATION(#484,#275);
#275=SHAPE_REPRESENTATION('Ball Nut',(#276),#479);
#276=AXIS2_PLACEMENT_3D('',#389,#311,#312);
#277=AXIS2_PLACEMENT_3D('',#390,#313,#314);
#278=AXIS2_PLACEMENT_3D('',#391,#315,#316);
#279=AXIS2_PLACEMENT_3D('',#396,#318,#319);
#280=AXIS2_PLACEMENT_3D('',#411,#321,#322);
#281=AXIS2_PLACEMENT_3D('',#412,#323,#324);
#282=AXIS2_PLACEMENT_3D('',#414,#325,#326);
#283=AXIS2_PLACEMENT_3D('',#428,#327,#328);
#284=AXIS2_PLACEMENT_3D('',#429,#329,#330);
#285=AXIS2_PLACEMENT_3D('',#431,#331,#332);
#286=AXIS2_PLACEMENT_3D('',#433,#333,#334);
#287=AXIS2_PLACEMENT_3D('',#435,#335,#336);
#288=AXIS2_PLACEMENT_3D('',#437,#337,#338);
#289=AXIS2_PLACEMENT_3D('',#439,#339,#340);
#290=AXIS2_PLACEMENT_3D('',#444,#343,#344);
#291=AXIS2_PLACEMENT_3D('',#449,#347,#348);
#292=AXIS2_PLACEMENT_3D('',#450,#349,#350);
#293=AXIS2_PLACEMENT_3D('',#451,#351,#352);
#294=AXIS2_PLACEMENT_3D('',#453,#353,#354);
#295=AXIS2_PLACEMENT_3D('',#455,#355,#356);
#296=AXIS2_PLACEMENT_3D('',#457,#357,#358);
#297=AXIS2_PLACEMENT_3D('',#459,#359,#360);
#298=AXIS2_PLACEMENT_3D('',#463,#363,#364);
#299=AXIS2_PLACEMENT_3D('',#464,#365,#366);
#300=AXIS2_PLACEMENT_3D('',#466,#367,#368);
#301=AXIS2_PLACEMENT_3D('',#467,#369,#370);
#302=AXIS2_PLACEMENT_3D('',#469,#371,#372);
#303=AXIS2_PLACEMENT_3D('',#470,#373,#374);
#304=AXIS2_PLACEMENT_3D('',#471,#375,#376);
#305=AXIS2_PLACEMENT_3D('',#472,#377,#378);
#306=AXIS2_PLACEMENT_3D('',#473,#379,#380);
#307=AXIS2_PLACEMENT_3D('',#474,#381,#382);
#308=AXIS2_PLACEMENT_3D('',#475,#383,#384);
#309=AXIS2_PLACEMENT_3D('',#476,#385,#386);
#310=AXIS2_PLACEMENT_3D('',#477,#387,#388);
#311=DIRECTION('',(0.,0.,1.));
#312=DIRECTION('',(1.,0.,0.));
#313=DIRECTION('',(-1.,0.,0.));
#314=DIRECTION('',(0.,1.,0.));
#315=DIRECTION('',(-1.,0.,0.));
#316=DIRECTION('',(0.,1.,0.));
#317=DIRECTION('',(-1.,0.,0.));
#318=DIRECTION('',(-1.,0.,0.));
#319=DIRECTION('',(0.,1.,0.));
#320=DIRECTION('',(-1.,0.,0.));
#321=DIRECTION('',(-1.,0.,0.));
#322=DIRECTION('',(0.,1.,0.));
#323=DIRECTION('',(-1.,0.,0.));
#324=DIRECTION('',(0.,1.,0.));
#325=DIRECTION('',(-1.,0.,0.));
#326=DIRECTION('',(0.,1.,0.));
#327=DIRECTION('',(1.,0.,0.));
#328=DIRECTION('',(0.,-1.,0.));
#329=DIRECTION('',(1.,0.,0.));
#330=DIRECTION('',(0.,-1.,0.));
#331=DIRECTION('',(1.,0.,0.));
#332=DIRECTION('',(0.,-1.,0.));
#333=DIRECTION('',(1.,0.,0.));
#334=DIRECTION('',(0.,-1.,0.));
#335=DIRECTION('',(1.,0.,0.));
#336=DIRECTION('',(0.,-1.,0.));
#337=DIRECTION('',(-1.,0.,0.));
#338=DIRECTION('',(0.,1.,0.));
#339=DIRECTION('',(-1.,0.,0.));
#340=DIRECTION('',(0.,1.,0.));
#341=DIRECTION('',(0.,1.,-8.13167124319306E-17));
#342=DIRECTION('',(0.,1.,-8.13167124319306E-17));
#343=DIRECTION('',(-1.,0.,0.));
#344=DIRECTION('',(0.,1.,0.));
#345=DIRECTION('',(-1.,0.,0.));
#346=DIRECTION('',(-1.,0.,0.));
#347=DIRECTION('',(-1.,0.,0.));
#348=DIRECTION('',(0.,1.,0.));
#349=DIRECTION('',(-1.,0.,0.));
#350=DIRECTION('',(0.,1.,0.));
#351=DIRECTION('',(1.,0.,0.));
#352=DIRECTION('',(0.,-1.,0.));
#353=DIRECTION('',(1.,0.,0.));
#354=DIRECTION('',(0.,-1.,0.));
#355=DIRECTION('',(1.,0.,0.));
#356=DIRECTION('',(0.,-1.,0.));
#357=DIRECTION('',(1.,0.,0.));
#358=DIRECTION('',(0.,-1.,0.));
#359=DIRECTION('',(-1.,0.,0.));
#360=DIRECTION('',(0.,1.,0.));
#361=DIRECTION('',(0.,-1.,8.13167124319306E-17));
#362=DIRECTION('',(0.,-1.,8.13167124319306E-17));
#363=DIRECTION('',(-1.,0.,0.));
#364=DIRECTION('',(0.,1.,0.));
#365=DIRECTION('',(-1.,0.,0.));
#366=DIRECTION('',(0.,1.,0.));
#367=DIRECTION('',(1.,0.,0.));
#368=DIRECTION('',(0.,-1.,0.));
#369=DIRECTION('',(-1.,0.,0.));
#370=DIRECTION('',(0.,1.,0.));
#371=DIRECTION('',(-1.,0.,0.));
#372=DIRECTION('',(0.,1.,0.));
#373=DIRECTION('',(-1.,0.,0.));
#374=DIRECTION('',(0.,1.,0.));
#375=DIRECTION('',(0.,-8.13167124319306E-17,-1.));
#376=DIRECTION('',(0.,1.,-8.13167124319306E-17));
#377=DIRECTION('',(0.,-8.13167124319306E-17,-1.));
#378=DIRECTION('',(0.,1.,-8.13167124319306E-17));
#379=DIRECTION('',(1.,0.,0.));
#380=DIRECTION('',(0.,-1.,0.));
#381=DIRECTION('',(1.,0.,0.));
#382=DIRECTION('',(0.,-1.,0.));
#383=DIRECTION('',(1.,0.,0.));
#384=DIRECTION('',(0.,-1.,0.));
#385=DIRECTION('',(1.,0.,0.));
#386=DIRECTION('',(0.,-1.,0.));
#387=DIRECTION('',(0.,-1.,0.));
#388=DIRECTION('',(-1.,0.,0.));
#389=CARTESIAN_POINT('',(0.,0.,0.));
#390=CARTESIAN_POINT('',(0.00147071108222008,0.,0.));
#391=CARTESIAN_POINT('',(-0.0035,0.,0.));
#392=CARTESIAN_POINT('',(-0.0035,0.025475478405714,0.024));
#393=CARTESIAN_POINT('',(-0.0035,0.025475478405714,-0.024));
#394=CARTESIAN_POINT('',(0.0095,0.025475478405714,-0.024));
#395=CARTESIAN_POINT('',(-0.0155,0.025475478405714,-0.024));
#396=CARTESIAN_POINT('',(-0.0155,0.,0.));
#397=CARTESIAN_POINT('',(-0.0155,0.025475478405714,0.024));
#398=CARTESIAN_POINT('',(0.0095,0.025475478405714,0.024));
#399=CARTESIAN_POINT('',(-0.0114574774908564,0.0349552433082135,0.0019612399883293));
#400=CARTESIAN_POINT('',(-0.012271106571594,0.0350223567440333,-4.97252925288534E-7));
#401=CARTESIAN_POINT('',(-0.0114580962227678,0.0349553297156535,-0.00195925097662814));
#402=CARTESIAN_POINT('',(-0.00950209124149661,0.0348882446737306,-0.00277011947410601));
#403=CARTESIAN_POINT('',(-0.00754162280843469,0.0349552924019542,-0.00196026894858063));
#404=CARTESIAN_POINT('',(-0.00672983543586241,0.0350223037364664,-4.23703823890867E-7));
#405=CARTESIAN_POINT('',(-0.00753903642357889,0.0349554925825042,0.00195655415247282));
#406=CARTESIAN_POINT('',(-0.00949716788971964,0.0348882163224257,0.00277054963588068));
#407=CARTESIAN_POINT('',(-0.0114574774908564,0.0349552433082135,0.0019612399883293));
#408=CARTESIAN_POINT('',(-0.012271106571594,0.0350223567440333,-4.97252925288534E-7));
#409=CARTESIAN_POINT('',(-0.0114580962227678,0.0349553297156535,-0.00195925097662814));
#410=CARTESIAN_POINT('',(-0.012,0.035,-4.35518383922669E-20));
#411=CARTESIAN_POINT('',(0.00147071108222008,0.,0.));
#412=CARTESIAN_POINT('',(-0.0285,0.,0.));
#413=CARTESIAN_POINT('',(-0.0285,0.01205,0.));
#414=CARTESIAN_POINT('',(0.0215,0.,0.));
#415=CARTESIAN_POINT('',(0.0215,0.01205,0.));
#416=CARTESIAN_POINT('',(-0.00754271273891087,0.0119200337953143,0.00196109832575648));
#417=CARTESIAN_POINT('',(-0.00672876417901281,0.0121149291437405,-4.2952637345408E-7));
#418=CARTESIAN_POINT('',(-0.0075422305450379,0.0119202496297238,-0.00195938022026266));
#419=CARTESIAN_POINT('',(-0.0094973701781662,0.0117215864569588,-0.00277030930628887));
#420=CARTESIAN_POINT('',(-0.0114592854179135,0.0119202741257884,-0.0019593798525866));
#421=CARTESIAN_POINT('',(-0.0122699236063845,0.0121147558317293,-9.38820415840487E-7));
#422=CARTESIAN_POINT('',(-0.0114610189060027,0.0119207022878452,0.00195701007297834));
#423=CARTESIAN_POINT('',(-0.00950162302624824,0.0117215334165185,0.00277047202927401));
#424=CARTESIAN_POINT('',(-0.00754271273891087,0.0119200337953143,0.00196109832575648));
#425=CARTESIAN_POINT('',(-0.00672876417901281,0.0121149291437405,-4.2952637345408E-7));
#426=CARTESIAN_POINT('',(-0.0075422305450379,0.0119202496297238,-0.00195938022026266));
#427=CARTESIAN_POINT('',(-0.007,0.01205,-3.34868737587134E-19));
#428=CARTESIAN_POINT('',(-0.0035,0.02925,0.));
#429=CARTESIAN_POINT('',(-0.0035,-0.0251147367097488,-0.0145));
#430=CARTESIAN_POINT('',(-0.0035,-0.0284147367097488,-0.0145));
#431=CARTESIAN_POINT('',(-0.0035,-0.0251147367097488,0.0145));
#432=CARTESIAN_POINT('',(-0.0035,-0.0284147367097488,0.0145));
#433=CARTESIAN_POINT('',(-0.0035,0.0251147367097488,0.0145));
#434=CARTESIAN_POINT('',(-0.0035,0.0218147367097488,0.0145));
#435=CARTESIAN_POINT('',(-0.0035,0.0251147367097488,-0.0145));
#436=CARTESIAN_POINT('',(-0.0035,0.0218147367097488,-0.0145));
#437=CARTESIAN_POINT('',(-0.0035,0.,0.));
#438=CARTESIAN_POINT('',(-0.0035,0.0235,0.));
#439=CARTESIAN_POINT('',(-0.0035,0.,0.));
#440=CARTESIAN_POINT('',(-0.0035,-0.025475478405714,-0.024));
#441=CARTESIAN_POINT('',(-0.0035,-0.025475478405714,0.024));
#442=CARTESIAN_POINT('',(-0.0035,0.02925,-0.024));
#443=CARTESIAN_POINT('',(-0.0035,0.02925,0.024));
#444=CARTESIAN_POINT('',(0.00147071108222008,0.,0.));
#445=CARTESIAN_POINT('',(0.0095,-0.025475478405714,-0.024));
#446=CARTESIAN_POINT('',(-0.0155,-0.025475478405714,-0.024));
#447=CARTESIAN_POINT('',(0.0095,-0.025475478405714,0.024));
#448=CARTESIAN_POINT('',(-0.0155,-0.025475478405714,0.024));
#449=CARTESIAN_POINT('',(-0.0155,0.,0.));
#450=CARTESIAN_POINT('',(-0.0155,0.02925,0.));
#451=CARTESIAN_POINT('',(-0.0155,-0.0251147367097488,-0.0145));
#452=CARTESIAN_POINT('',(-0.0155,-0.0284147367097488,-0.0145));
#453=CARTESIAN_POINT('',(-0.0155,-0.0251147367097488,0.0145));
#454=CARTESIAN_POINT('',(-0.0155,-0.0284147367097488,0.0145));
#455=CARTESIAN_POINT('',(-0.0155,0.0251147367097488,0.0145));
#456=CARTESIAN_POINT('',(-0.0155,0.0218147367097488,0.0145));
#457=CARTESIAN_POINT('',(-0.0155,0.0251147367097488,-0.0145));
#458=CARTESIAN_POINT('',(-0.0155,0.0218147367097488,-0.0145));
#459=CARTESIAN_POINT('',(-0.0155,0.,0.));
#460=CARTESIAN_POINT('',(-0.0155,0.0235,0.));
#461=CARTESIAN_POINT('',(-0.0155,-0.000668505206704133,-0.024));
#462=CARTESIAN_POINT('',(-0.0155,-0.000668505206704126,0.024));
#463=CARTESIAN_POINT('',(-0.0285,0.017775,0.));
#464=CARTESIAN_POINT('',(-0.0285,0.,0.));
#465=CARTESIAN_POINT('',(-0.0285,0.0235,0.));
#466=CARTESIAN_POINT('',(0.0215,0.017775,0.));
#467=CARTESIAN_POINT('',(0.0215,0.,0.));
#468=CARTESIAN_POINT('',(0.0215,0.0235,0.));
#469=CARTESIAN_POINT('',(0.00147071108222008,0.,0.));
#470=CARTESIAN_POINT('',(0.00147071108222008,0.,0.));
#471=CARTESIAN_POINT('',(0.0095,-0.000668505206704126,0.024));
#472=CARTESIAN_POINT('',(0.0095,-0.000668505206704133,-0.024));
#473=CARTESIAN_POINT('',(-0.0155,0.0251147367097488,-0.0145));
#474=CARTESIAN_POINT('',(-0.0155,0.0251147367097488,0.0145));
#475=CARTESIAN_POINT('',(-0.0155,-0.0251147367097488,0.0145));
#476=CARTESIAN_POINT('',(-0.0155,-0.0251147367097488,-0.0145));
#477=CARTESIAN_POINT('',(-0.0095,0.037,0.));
#478=MECHANICAL_DESIGN_GEOMETRIC_PRESENTATION_REPRESENTATION('',(#265),
#479);
#479=(
GEOMETRIC_REPRESENTATION_CONTEXT(3)
GLOBAL_UNCERTAINTY_ASSIGNED_CONTEXT((#480))
GLOBAL_UNIT_ASSIGNED_CONTEXT((#483,#482,#481))
REPRESENTATION_CONTEXT('Ball Nut','TOP_LEVEL_ASSEMBLY_PART')
);
#480=UNCERTAINTY_MEASURE_WITH_UNIT(LENGTH_MEASURE(5.E-6),#483,
'DISTANCE_ACCURACY_VALUE','Maximum Tolerance applied to model');
#481=(
NAMED_UNIT(*)
SI_UNIT($,.STERADIAN.)
SOLID_ANGLE_UNIT()
);
#482=(
NAMED_UNIT(*)
PLANE_ANGLE_UNIT()
SI_UNIT($,.RADIAN.)
);
#483=(
LENGTH_UNIT()
NAMED_UNIT(*)
SI_UNIT($,.METRE.)
);
#484=PRODUCT_DEFINITION_SHAPE('','',#485);
#485=PRODUCT_DEFINITION('','',#487,#486);
#486=PRODUCT_DEFINITION_CONTEXT('',#493,'design');
#487=PRODUCT_DEFINITION_FORMATION_WITH_SPECIFIED_SOURCE('','',#489,
 .NOT_KNOWN.);
#488=PRODUCT_RELATED_PRODUCT_CATEGORY('','',(#489));
#489=PRODUCT('Ball Nut','Ball Nut','Ball Nut',(#491));
#490=PRODUCT_CATEGORY('','');
#491=PRODUCT_CONTEXT('',#493,'mechanical');
#492=APPLICATION_PROTOCOL_DEFINITION('international standard',
'ap242_managed_model_based_3d_engineering',2011,#493);
#493=APPLICATION_CONTEXT('managed model based 3d engineering');
ENDSEC;
END-ISO-10303-21;
