ISO-10303-21;
HEADER;
/* Generated by software containing ST-Developer
 * from STEP Tools, Inc. (www.steptools.com) 
 */
/* OPTION: using custom renumber hook */

FILE_DESCRIPTION(
/* description */ ('STEP AP242',
'CAx-IF Rec.Pracs.---Representation and Presentation of Product Manufa
cturing Information (PMI)---4.0---2014-10-13',
'CAx-IF Rec.Pracs.---3D Tessellated Geometry---0.4---2014-09-14','2;1'),

/* implementation_level */ '2;1');

FILE_NAME(
/* name */ '66e2d902ee30796ad6776861',
/* time_stamp */ '2024-09-12T12:05:22Z',
/* author */ (''),
/* organization */ (''),
/* preprocessor_version */ 'ST-DEVELOPER v20',
/* originating_system */ '  ',
/* authorisation */ '  ');

FILE_SCHEMA (('AP242_MANAGED_MODEL_BASED_3D_ENGINEERING_MIM_LF { 1 0 10303 442 1 1 4 }'));
ENDSEC;

DATA;
#10=SHAPE_REPRESENTATION_RELATIONSHIP('','',#333,#11);
#11=ADVANCED_BREP_SHAPE_REPRESENTATION('',(#331),#575);
#12=PLANE('',#341);
#13=PLANE('',#353);
#14=PLANE('',#363);
#15=PLANE('',#366);
#16=PLANE('',#367);
#17=B_SPLINE_CURVE_WITH_KNOTS('',3,(#481,#482,#483,#484,#485,#486,#487,
#488,#489,#490,#491),.UNSPECIFIED.,.T.,.F.,(1,1,1,1,1,1,1,1,1,1,1,1,1,1,
1),(-0.0079742031462609,-0.0053161354308406,-0.0026580677154203,0.,0.0026580677154203,
0.0053161354308406,0.0079742031462609,0.0106322708616812,0.0132903385771015,
0.0159484062925218,0.0186064740079421,0.0212645417233624,0.0239226094387827,
0.026580677154203,0.0292387448696233),.UNSPECIFIED.);
#18=B_SPLINE_CURVE_WITH_KNOTS('',3,(#498,#499,#500,#501,#502,#503,#504,
#505,#506,#507,#508),.UNSPECIFIED.,.T.,.F.,(1,1,1,1,1,1,1,1,1,1,1,1,1,1,
1),(-0.00798568290172099,-0.00532378860114733,-0.00266189430057366,0.,0.00266189430057366,
0.00532378860114733,0.00798568290172099,0.0106475772022947,0.0133094715028683,
0.015971365803442,0.0186332601040156,0.0212951544045893,0.023957048705163,
0.0266189430057366,0.0292808373063103),.UNSPECIFIED.);
#19=LINE('',#476,#27);
#20=LINE('',#480,#28);
#21=LINE('',#527,#29);
#22=LINE('',#531,#30);
#23=LINE('',#533,#31);
#24=LINE('',#537,#32);
#25=LINE('',#557,#33);
#26=LINE('',#558,#34);
#27=VECTOR('',#383,1.);
#28=VECTOR('',#386,1.);
#29=VECTOR('',#411,1.);
#30=VECTOR('',#414,1.);
#31=VECTOR('',#417,1.);
#32=VECTOR('',#420,1.);
#33=VECTOR('',#441,1.);
#34=VECTOR('',#442,1.);
#35=ORIENTED_EDGE('',*,*,#103,.F.);
#36=ORIENTED_EDGE('',*,*,#104,.T.);
#37=ORIENTED_EDGE('',*,*,#105,.T.);
#38=ORIENTED_EDGE('',*,*,#106,.F.);
#39=ORIENTED_EDGE('',*,*,#107,.T.);
#40=ORIENTED_EDGE('',*,*,#108,.F.);
#41=ORIENTED_EDGE('',*,*,#109,.T.);
#42=ORIENTED_EDGE('',*,*,#110,.T.);
#43=ORIENTED_EDGE('',*,*,#111,.T.);
#44=ORIENTED_EDGE('',*,*,#112,.T.);
#45=ORIENTED_EDGE('',*,*,#113,.T.);
#46=ORIENTED_EDGE('',*,*,#114,.T.);
#47=ORIENTED_EDGE('',*,*,#115,.T.);
#48=ORIENTED_EDGE('',*,*,#116,.T.);
#49=ORIENTED_EDGE('',*,*,#117,.T.);
#50=ORIENTED_EDGE('',*,*,#118,.T.);
#51=ORIENTED_EDGE('',*,*,#108,.T.);
#52=ORIENTED_EDGE('',*,*,#105,.F.);
#53=ORIENTED_EDGE('',*,*,#119,.T.);
#54=ORIENTED_EDGE('',*,*,#120,.F.);
#55=ORIENTED_EDGE('',*,*,#121,.F.);
#56=ORIENTED_EDGE('',*,*,#122,.F.);
#57=ORIENTED_EDGE('',*,*,#123,.F.);
#58=ORIENTED_EDGE('',*,*,#124,.T.);
#59=ORIENTED_EDGE('',*,*,#120,.T.);
#60=ORIENTED_EDGE('',*,*,#125,.T.);
#61=ORIENTED_EDGE('',*,*,#126,.T.);
#62=ORIENTED_EDGE('',*,*,#127,.T.);
#63=ORIENTED_EDGE('',*,*,#128,.T.);
#64=ORIENTED_EDGE('',*,*,#129,.T.);
#65=ORIENTED_EDGE('',*,*,#130,.T.);
#66=ORIENTED_EDGE('',*,*,#131,.T.);
#67=ORIENTED_EDGE('',*,*,#132,.T.);
#68=ORIENTED_EDGE('',*,*,#133,.F.);
#69=ORIENTED_EDGE('',*,*,#123,.T.);
#70=ORIENTED_EDGE('',*,*,#134,.T.);
#71=ORIENTED_EDGE('',*,*,#103,.T.);
#72=ORIENTED_EDGE('',*,*,#135,.F.);
#73=ORIENTED_EDGE('',*,*,#136,.T.);
#74=ORIENTED_EDGE('',*,*,#109,.F.);
#75=ORIENTED_EDGE('',*,*,#133,.T.);
#76=ORIENTED_EDGE('',*,*,#136,.F.);
#77=ORIENTED_EDGE('',*,*,#135,.T.);
#78=ORIENTED_EDGE('',*,*,#106,.T.);
#79=ORIENTED_EDGE('',*,*,#121,.T.);
#80=ORIENTED_EDGE('',*,*,#124,.F.);
#81=ORIENTED_EDGE('',*,*,#122,.T.);
#82=ORIENTED_EDGE('',*,*,#119,.F.);
#83=ORIENTED_EDGE('',*,*,#104,.F.);
#84=ORIENTED_EDGE('',*,*,#134,.F.);
#85=ORIENTED_EDGE('',*,*,#132,.F.);
#86=ORIENTED_EDGE('',*,*,#118,.F.);
#87=ORIENTED_EDGE('',*,*,#131,.F.);
#88=ORIENTED_EDGE('',*,*,#117,.F.);
#89=ORIENTED_EDGE('',*,*,#130,.F.);
#90=ORIENTED_EDGE('',*,*,#116,.F.);
#91=ORIENTED_EDGE('',*,*,#129,.F.);
#92=ORIENTED_EDGE('',*,*,#115,.F.);
#93=ORIENTED_EDGE('',*,*,#128,.F.);
#94=ORIENTED_EDGE('',*,*,#114,.F.);
#95=ORIENTED_EDGE('',*,*,#127,.F.);
#96=ORIENTED_EDGE('',*,*,#113,.F.);
#97=ORIENTED_EDGE('',*,*,#126,.F.);
#98=ORIENTED_EDGE('',*,*,#112,.F.);
#99=ORIENTED_EDGE('',*,*,#125,.F.);
#100=ORIENTED_EDGE('',*,*,#111,.F.);
#101=ORIENTED_EDGE('',*,*,#107,.F.);
#102=ORIENTED_EDGE('',*,*,#110,.F.);
#103=EDGE_CURVE('',#137,#138,#167,.T.);
#104=EDGE_CURVE('',#137,#139,#19,.T.);
#105=EDGE_CURVE('',#139,#140,#168,.T.);
#106=EDGE_CURVE('',#138,#140,#20,.T.);
#107=EDGE_CURVE('',#141,#141,#17,.T.);
#108=EDGE_CURVE('',#142,#142,#169,.T.);
#109=EDGE_CURVE('',#143,#143,#170,.T.);
#110=EDGE_CURVE('',#144,#144,#18,.T.);
#111=EDGE_CURVE('',#145,#145,#171,.T.);
#112=EDGE_CURVE('',#146,#146,#172,.T.);
#113=EDGE_CURVE('',#147,#147,#173,.T.);
#114=EDGE_CURVE('',#148,#148,#174,.T.);
#115=EDGE_CURVE('',#149,#149,#175,.T.);
#116=EDGE_CURVE('',#150,#150,#176,.T.);
#117=EDGE_CURVE('',#151,#151,#177,.T.);
#118=EDGE_CURVE('',#152,#152,#178,.T.);
#119=EDGE_CURVE('',#139,#153,#21,.T.);
#120=EDGE_CURVE('',#154,#153,#179,.T.);
#121=EDGE_CURVE('',#140,#154,#22,.T.);
#122=EDGE_CURVE('',#155,#153,#23,.T.);
#123=EDGE_CURVE('',#156,#155,#180,.T.);
#124=EDGE_CURVE('',#156,#154,#24,.T.);
#125=EDGE_CURVE('',#157,#157,#181,.F.);
#126=EDGE_CURVE('',#158,#158,#182,.F.);
#127=EDGE_CURVE('',#159,#159,#183,.F.);
#128=EDGE_CURVE('',#160,#160,#184,.F.);
#129=EDGE_CURVE('',#161,#161,#185,.F.);
#130=EDGE_CURVE('',#162,#162,#186,.F.);
#131=EDGE_CURVE('',#163,#163,#187,.F.);
#132=EDGE_CURVE('',#164,#164,#188,.F.);
#133=EDGE_CURVE('',#165,#165,#189,.T.);
#134=EDGE_CURVE('',#155,#137,#25,.T.);
#135=EDGE_CURVE('',#156,#138,#26,.T.);
#136=EDGE_CURVE('',#166,#166,#190,.T.);
#137=VERTEX_POINT('',#474);
#138=VERTEX_POINT('',#475);
#139=VERTEX_POINT('',#477);
#140=VERTEX_POINT('',#479);
#141=VERTEX_POINT('',#492);
#142=VERTEX_POINT('',#495);
#143=VERTEX_POINT('',#497);
#144=VERTEX_POINT('',#509);
#145=VERTEX_POINT('',#512);
#146=VERTEX_POINT('',#514);
#147=VERTEX_POINT('',#516);
#148=VERTEX_POINT('',#518);
#149=VERTEX_POINT('',#520);
#150=VERTEX_POINT('',#522);
#151=VERTEX_POINT('',#524);
#152=VERTEX_POINT('',#526);
#153=VERTEX_POINT('',#528);
#154=VERTEX_POINT('',#530);
#155=VERTEX_POINT('',#534);
#156=VERTEX_POINT('',#536);
#157=VERTEX_POINT('',#540);
#158=VERTEX_POINT('',#542);
#159=VERTEX_POINT('',#544);
#160=VERTEX_POINT('',#546);
#161=VERTEX_POINT('',#548);
#162=VERTEX_POINT('',#550);
#163=VERTEX_POINT('',#552);
#164=VERTEX_POINT('',#554);
#165=VERTEX_POINT('',#556);
#166=VERTEX_POINT('',#561);
#167=CIRCLE('',#336,0.0465);
#168=CIRCLE('',#337,0.0465);
#169=CIRCLE('',#339,0.020193);
#170=CIRCLE('',#340,0.020193);
#171=CIRCLE('',#342,0.0045);
#172=CIRCLE('',#343,0.0045);
#173=CIRCLE('',#344,0.0045);
#174=CIRCLE('',#345,0.0045);
#175=CIRCLE('',#346,0.0045);
#176=CIRCLE('',#347,0.0045);
#177=CIRCLE('',#348,0.0045);
#178=CIRCLE('',#349,0.0045);
#179=CIRCLE('',#350,0.0465);
#180=CIRCLE('',#352,0.0465);
#181=CIRCLE('',#354,0.0045);
#182=CIRCLE('',#355,0.0045);
#183=CIRCLE('',#356,0.0045);
#184=CIRCLE('',#357,0.0045);
#185=CIRCLE('',#358,0.0045);
#186=CIRCLE('',#359,0.0045);
#187=CIRCLE('',#360,0.0045);
#188=CIRCLE('',#361,0.0045);
#189=CIRCLE('',#362,0.0315);
#190=CIRCLE('',#364,0.0315);
#191=EDGE_LOOP('',(#35,#36,#37,#38));
#192=EDGE_LOOP('',(#39));
#193=EDGE_LOOP('',(#40));
#194=EDGE_LOOP('',(#41));
#195=EDGE_LOOP('',(#42));
#196=EDGE_LOOP('',(#43));
#197=EDGE_LOOP('',(#44));
#198=EDGE_LOOP('',(#45));
#199=EDGE_LOOP('',(#46));
#200=EDGE_LOOP('',(#47));
#201=EDGE_LOOP('',(#48));
#202=EDGE_LOOP('',(#49));
#203=EDGE_LOOP('',(#50));
#204=EDGE_LOOP('',(#51));
#205=EDGE_LOOP('',(#52,#53,#54,#55));
#206=EDGE_LOOP('',(#56,#57,#58,#59));
#207=EDGE_LOOP('',(#60));
#208=EDGE_LOOP('',(#61));
#209=EDGE_LOOP('',(#62));
#210=EDGE_LOOP('',(#63));
#211=EDGE_LOOP('',(#64));
#212=EDGE_LOOP('',(#65));
#213=EDGE_LOOP('',(#66));
#214=EDGE_LOOP('',(#67));
#215=EDGE_LOOP('',(#68));
#216=EDGE_LOOP('',(#69,#70,#71,#72));
#217=EDGE_LOOP('',(#73));
#218=EDGE_LOOP('',(#74));
#219=EDGE_LOOP('',(#75));
#220=EDGE_LOOP('',(#76));
#221=EDGE_LOOP('',(#77,#78,#79,#80));
#222=EDGE_LOOP('',(#81,#82,#83,#84));
#223=EDGE_LOOP('',(#85));
#224=EDGE_LOOP('',(#86));
#225=EDGE_LOOP('',(#87));
#226=EDGE_LOOP('',(#88));
#227=EDGE_LOOP('',(#89));
#228=EDGE_LOOP('',(#90));
#229=EDGE_LOOP('',(#91));
#230=EDGE_LOOP('',(#92));
#231=EDGE_LOOP('',(#93));
#232=EDGE_LOOP('',(#94));
#233=EDGE_LOOP('',(#95));
#234=EDGE_LOOP('',(#96));
#235=EDGE_LOOP('',(#97));
#236=EDGE_LOOP('',(#98));
#237=EDGE_LOOP('',(#99));
#238=EDGE_LOOP('',(#100));
#239=EDGE_LOOP('',(#101));
#240=EDGE_LOOP('',(#102));
#241=FACE_BOUND('',#191,.T.);
#242=FACE_BOUND('',#192,.T.);
#243=FACE_BOUND('',#193,.T.);
#244=FACE_BOUND('',#194,.T.);
#245=FACE_BOUND('',#195,.T.);
#246=FACE_BOUND('',#196,.T.);
#247=FACE_BOUND('',#197,.T.);
#248=FACE_BOUND('',#198,.T.);
#249=FACE_BOUND('',#199,.T.);
#250=FACE_BOUND('',#200,.T.);
#251=FACE_BOUND('',#201,.T.);
#252=FACE_BOUND('',#202,.T.);
#253=FACE_BOUND('',#203,.T.);
#254=FACE_BOUND('',#204,.T.);
#255=FACE_BOUND('',#205,.T.);
#256=FACE_BOUND('',#206,.T.);
#257=FACE_BOUND('',#207,.T.);
#258=FACE_BOUND('',#208,.T.);
#259=FACE_BOUND('',#209,.T.);
#260=FACE_BOUND('',#210,.T.);
#261=FACE_BOUND('',#211,.T.);
#262=FACE_BOUND('',#212,.T.);
#263=FACE_BOUND('',#213,.T.);
#264=FACE_BOUND('',#214,.T.);
#265=FACE_BOUND('',#215,.T.);
#266=FACE_BOUND('',#216,.T.);
#267=FACE_BOUND('',#217,.T.);
#268=FACE_BOUND('',#218,.T.);
#269=FACE_BOUND('',#219,.T.);
#270=FACE_BOUND('',#220,.T.);
#271=FACE_BOUND('',#221,.T.);
#272=FACE_BOUND('',#222,.T.);
#273=FACE_BOUND('',#223,.T.);
#274=FACE_BOUND('',#224,.T.);
#275=FACE_BOUND('',#225,.T.);
#276=FACE_BOUND('',#226,.T.);
#277=FACE_BOUND('',#227,.T.);
#278=FACE_BOUND('',#228,.T.);
#279=FACE_BOUND('',#229,.T.);
#280=FACE_BOUND('',#230,.T.);
#281=FACE_BOUND('',#231,.T.);
#282=FACE_BOUND('',#232,.T.);
#283=FACE_BOUND('',#233,.T.);
#284=FACE_BOUND('',#234,.T.);
#285=FACE_BOUND('',#235,.T.);
#286=FACE_BOUND('',#236,.T.);
#287=FACE_BOUND('',#237,.T.);
#288=FACE_BOUND('',#238,.T.);
#289=FACE_BOUND('',#239,.T.);
#290=FACE_BOUND('',#240,.T.);
#291=CYLINDRICAL_SURFACE('',#335,0.0465);
#292=CYLINDRICAL_SURFACE('',#338,0.020193);
#293=CYLINDRICAL_SURFACE('',#351,0.0465);
#294=CYLINDRICAL_SURFACE('',#365,0.0315);
#295=CYLINDRICAL_SURFACE('',#368,0.0045);
#296=CYLINDRICAL_SURFACE('',#369,0.0045);
#297=CYLINDRICAL_SURFACE('',#370,0.0045);
#298=CYLINDRICAL_SURFACE('',#371,0.0045);
#299=CYLINDRICAL_SURFACE('',#372,0.0045);
#300=CYLINDRICAL_SURFACE('',#373,0.0045);
#301=CYLINDRICAL_SURFACE('',#374,0.0045);
#302=CYLINDRICAL_SURFACE('',#375,0.0045);
#303=CYLINDRICAL_SURFACE('',#376,0.0034);
#304=ADVANCED_FACE('',(#241,#242),#291,.T.);
#305=ADVANCED_FACE('',(#243,#244,#245),#292,.F.);
#306=ADVANCED_FACE('',(#246,#247,#248,#249,#250,#251,#252,#253,#254,#255),
#12,.T.);
#307=ADVANCED_FACE('',(#256),#293,.T.);
#308=ADVANCED_FACE('',(#257,#258,#259,#260,#261,#262,#263,#264,#265,#266),
#13,.T.);
#309=ADVANCED_FACE('',(#267,#268),#14,.T.);
#310=ADVANCED_FACE('',(#269,#270),#294,.T.);
#311=ADVANCED_FACE('',(#271),#15,.F.);
#312=ADVANCED_FACE('',(#272),#16,.T.);
#313=ADVANCED_FACE('',(#273,#274),#295,.F.);
#314=ADVANCED_FACE('',(#275,#276),#296,.F.);
#315=ADVANCED_FACE('',(#277,#278),#297,.F.);
#316=ADVANCED_FACE('',(#279,#280),#298,.F.);
#317=ADVANCED_FACE('',(#281,#282),#299,.F.);
#318=ADVANCED_FACE('',(#283,#284),#300,.F.);
#319=ADVANCED_FACE('',(#285,#286),#301,.F.);
#320=ADVANCED_FACE('',(#287,#288),#302,.F.);
#321=ADVANCED_FACE('',(#289,#290),#303,.F.);
#322=CLOSED_SHELL('',(#304,#305,#306,#307,#308,#309,#310,#311,#312,#313,
#314,#315,#316,#317,#318,#319,#320,#321));
#323=STYLED_ITEM('',(#324),#331);
#324=PRESENTATION_STYLE_ASSIGNMENT((#325));
#325=SURFACE_STYLE_USAGE(.BOTH.,#326);
#326=SURFACE_SIDE_STYLE('',(#327));
#327=SURFACE_STYLE_FILL_AREA(#328);
#328=FILL_AREA_STYLE('',(#329));
#329=FILL_AREA_STYLE_COLOUR('',#330);
#330=COLOUR_RGB('',0.615686274509804,0.811764705882353,0.929411764705882);
#331=MANIFOLD_SOLID_BREP('40 x 10 Ball Nut',#322);
#332=SHAPE_DEFINITION_REPRESENTATION(#580,#333);
#333=SHAPE_REPRESENTATION('40 x 10 Ball Nut',(#334),#575);
#334=AXIS2_PLACEMENT_3D('',#471,#377,#378);
#335=AXIS2_PLACEMENT_3D('',#472,#379,#380);
#336=AXIS2_PLACEMENT_3D('',#473,#381,#382);
#337=AXIS2_PLACEMENT_3D('',#478,#384,#385);
#338=AXIS2_PLACEMENT_3D('',#493,#387,#388);
#339=AXIS2_PLACEMENT_3D('',#494,#389,#390);
#340=AXIS2_PLACEMENT_3D('',#496,#391,#392);
#341=AXIS2_PLACEMENT_3D('',#510,#393,#394);
#342=AXIS2_PLACEMENT_3D('',#511,#395,#396);
#343=AXIS2_PLACEMENT_3D('',#513,#397,#398);
#344=AXIS2_PLACEMENT_3D('',#515,#399,#400);
#345=AXIS2_PLACEMENT_3D('',#517,#401,#402);
#346=AXIS2_PLACEMENT_3D('',#519,#403,#404);
#347=AXIS2_PLACEMENT_3D('',#521,#405,#406);
#348=AXIS2_PLACEMENT_3D('',#523,#407,#408);
#349=AXIS2_PLACEMENT_3D('',#525,#409,#410);
#350=AXIS2_PLACEMENT_3D('',#529,#412,#413);
#351=AXIS2_PLACEMENT_3D('',#532,#415,#416);
#352=AXIS2_PLACEMENT_3D('',#535,#418,#419);
#353=AXIS2_PLACEMENT_3D('',#538,#421,#422);
#354=AXIS2_PLACEMENT_3D('',#539,#423,#424);
#355=AXIS2_PLACEMENT_3D('',#541,#425,#426);
#356=AXIS2_PLACEMENT_3D('',#543,#427,#428);
#357=AXIS2_PLACEMENT_3D('',#545,#429,#430);
#358=AXIS2_PLACEMENT_3D('',#547,#431,#432);
#359=AXIS2_PLACEMENT_3D('',#549,#433,#434);
#360=AXIS2_PLACEMENT_3D('',#551,#435,#436);
#361=AXIS2_PLACEMENT_3D('',#553,#437,#438);
#362=AXIS2_PLACEMENT_3D('',#555,#439,#440);
#363=AXIS2_PLACEMENT_3D('',#559,#443,#444);
#364=AXIS2_PLACEMENT_3D('',#560,#445,#446);
#365=AXIS2_PLACEMENT_3D('',#562,#447,#448);
#366=AXIS2_PLACEMENT_3D('',#563,#449,#450);
#367=AXIS2_PLACEMENT_3D('',#564,#451,#452);
#368=AXIS2_PLACEMENT_3D('',#565,#453,#454);
#369=AXIS2_PLACEMENT_3D('',#566,#455,#456);
#370=AXIS2_PLACEMENT_3D('',#567,#457,#458);
#371=AXIS2_PLACEMENT_3D('',#568,#459,#460);
#372=AXIS2_PLACEMENT_3D('',#569,#461,#462);
#373=AXIS2_PLACEMENT_3D('',#570,#463,#464);
#374=AXIS2_PLACEMENT_3D('',#571,#465,#466);
#375=AXIS2_PLACEMENT_3D('',#572,#467,#468);
#376=AXIS2_PLACEMENT_3D('',#573,#469,#470);
#377=DIRECTION('',(0.,0.,1.));
#378=DIRECTION('',(1.,0.,0.));
#379=DIRECTION('',(-1.,0.,0.));
#380=DIRECTION('',(0.,1.,0.));
#381=DIRECTION('',(-1.,0.,0.));
#382=DIRECTION('',(0.,1.,0.));
#383=DIRECTION('',(1.,0.,0.));
#384=DIRECTION('',(-1.,0.,0.));
#385=DIRECTION('',(0.,1.,0.));
#386=DIRECTION('',(1.,0.,0.));
#387=DIRECTION('',(-1.,0.,0.));
#388=DIRECTION('',(0.,1.,0.));
#389=DIRECTION('',(-1.,0.,0.));
#390=DIRECTION('',(0.,1.,0.));
#391=DIRECTION('',(-1.,0.,0.));
#392=DIRECTION('',(0.,1.,0.));
#393=DIRECTION('',(1.,0.,0.));
#394=DIRECTION('',(0.,-1.,0.));
#395=DIRECTION('',(-1.,0.,0.));
#396=DIRECTION('',(0.,1.,0.));
#397=DIRECTION('',(-1.,0.,0.));
#398=DIRECTION('',(0.,1.,0.));
#399=DIRECTION('',(-1.,0.,0.));
#400=DIRECTION('',(0.,1.,0.));
#401=DIRECTION('',(-1.,0.,0.));
#402=DIRECTION('',(0.,1.,0.));
#403=DIRECTION('',(-1.,0.,0.));
#404=DIRECTION('',(0.,1.,0.));
#405=DIRECTION('',(-1.,0.,0.));
#406=DIRECTION('',(0.,1.,0.));
#407=DIRECTION('',(-1.,0.,0.));
#408=DIRECTION('',(0.,1.,0.));
#409=DIRECTION('',(-1.,0.,0.));
#410=DIRECTION('',(0.,1.,0.));
#411=DIRECTION('',(0.,-1.,-7.90396325406015E-17));
#412=DIRECTION('',(-1.,0.,0.));
#413=DIRECTION('',(0.,1.,0.));
#414=DIRECTION('',(0.,-1.,-7.90396325406015E-17));
#415=DIRECTION('',(-1.,0.,0.));
#416=DIRECTION('',(0.,1.,0.));
#417=DIRECTION('',(1.,0.,0.));
#418=DIRECTION('',(-1.,0.,0.));
#419=DIRECTION('',(0.,1.,0.));
#420=DIRECTION('',(1.,0.,0.));
#421=DIRECTION('',(-1.,0.,0.));
#422=DIRECTION('',(0.,1.,0.));
#423=DIRECTION('',(-1.,0.,0.));
#424=DIRECTION('',(0.,1.,0.));
#425=DIRECTION('',(-1.,0.,0.));
#426=DIRECTION('',(0.,1.,0.));
#427=DIRECTION('',(-1.,0.,0.));
#428=DIRECTION('',(0.,1.,0.));
#429=DIRECTION('',(-1.,0.,0.));
#430=DIRECTION('',(0.,1.,0.));
#431=DIRECTION('',(-1.,0.,0.));
#432=DIRECTION('',(0.,1.,0.));
#433=DIRECTION('',(-1.,0.,0.));
#434=DIRECTION('',(0.,1.,0.));
#435=DIRECTION('',(-1.,0.,0.));
#436=DIRECTION('',(0.,1.,0.));
#437=DIRECTION('',(-1.,0.,0.));
#438=DIRECTION('',(0.,1.,0.));
#439=DIRECTION('',(-1.,0.,0.));
#440=DIRECTION('',(0.,1.,0.));
#441=DIRECTION('',(0.,1.,7.90396325406015E-17));
#442=DIRECTION('',(0.,1.,7.90396325406015E-17));
#443=DIRECTION('',(-1.,0.,0.));
#444=DIRECTION('',(0.,1.,0.));
#445=DIRECTION('',(-1.,0.,0.));
#446=DIRECTION('',(0.,1.,0.));
#447=DIRECTION('',(-1.,0.,0.));
#448=DIRECTION('',(0.,1.,0.));
#449=DIRECTION('',(0.,-7.90396325406015E-17,1.));
#450=DIRECTION('',(0.,-1.,-7.90396325406015E-17));
#451=DIRECTION('',(0.,-7.90396325406015E-17,1.));
#452=DIRECTION('',(0.,-1.,-7.90396325406015E-17));
#453=DIRECTION('',(-1.,0.,0.));
#454=DIRECTION('',(0.,1.,0.));
#455=DIRECTION('',(-1.,0.,0.));
#456=DIRECTION('',(0.,1.,0.));
#457=DIRECTION('',(-1.,0.,0.));
#458=DIRECTION('',(0.,1.,0.));
#459=DIRECTION('',(-1.,0.,0.));
#460=DIRECTION('',(0.,1.,0.));
#461=DIRECTION('',(-1.,0.,0.));
#462=DIRECTION('',(0.,1.,0.));
#463=DIRECTION('',(-1.,0.,0.));
#464=DIRECTION('',(0.,1.,0.));
#465=DIRECTION('',(-1.,0.,0.));
#466=DIRECTION('',(0.,1.,0.));
#467=DIRECTION('',(-1.,0.,0.));
#468=DIRECTION('',(0.,1.,0.));
#469=DIRECTION('',(0.,0.866025403784439,0.5));
#470=DIRECTION('',(0.,-0.5,0.866025403784439));
#471=CARTESIAN_POINT('',(0.,0.,0.));
#472=CARTESIAN_POINT('',(0.0526831056922674,0.,0.));
#473=CARTESIAN_POINT('',(0.0536,0.,0.));
#474=CARTESIAN_POINT('',(0.0536,0.0306145390296832,0.035));
#475=CARTESIAN_POINT('',(0.0536,0.0306145390296833,-0.035));
#476=CARTESIAN_POINT('',(0.0422,0.0306145390296832,0.035));
#477=CARTESIAN_POINT('',(0.0676,0.0306145390296832,0.035));
#478=CARTESIAN_POINT('',(0.0676,0.,0.));
#479=CARTESIAN_POINT('',(0.0676,0.0306145390296833,-0.035));
#480=CARTESIAN_POINT('',(0.0422,0.0306145390296833,-0.035));
#481=CARTESIAN_POINT('',(0.0632672830563067,0.0388854096739644,0.0255245107083159));
#482=CARTESIAN_POINT('',(0.0605993241709064,0.0382510099764288,0.0264359564447146));
#483=CARTESIAN_POINT('',(0.0579354202600675,0.0388848851532958,0.0255251787759024));
#484=CARTESIAN_POINT('',(0.0568326344218917,0.0402956411726718,0.0232679885455982));
#485=CARTESIAN_POINT('',(0.057934045018619,0.0415481370985539,0.0209123941228811));
#486=CARTESIAN_POINT('',(0.0605994192484792,0.0420191363373311,0.0199095179220571));
#487=CARTESIAN_POINT('',(0.0632609133340691,0.0415496517048186,0.0209092141775577));
#488=CARTESIAN_POINT('',(0.0643679484240635,0.0402990203279913,0.0232622144582821));
#489=CARTESIAN_POINT('',(0.0632672830563067,0.0388854096739644,0.0255245107083159));
#490=CARTESIAN_POINT('',(0.0605993241709064,0.0382510099764288,0.0264359564447146));
#491=CARTESIAN_POINT('',(0.0579354202600675,0.0388848851532958,0.0255251787759024));
#492=CARTESIAN_POINT('',(0.0606,0.0384623891221626,0.0261322525438462));
#493=CARTESIAN_POINT('',(0.0526831056922674,0.,0.));
#494=CARTESIAN_POINT('',(0.0676,0.,0.));
#495=CARTESIAN_POINT('',(0.0676,0.020193,0.));
#496=CARTESIAN_POINT('',(-0.0254,0.,0.));
#497=CARTESIAN_POINT('',(-0.0254,0.020193,0.));
#498=CARTESIAN_POINT('',(0.0579328772099249,0.0160329916880127,0.0123305137552502));
#499=CARTESIAN_POINT('',(0.0606006295574068,0.0152906257073201,0.0131798656662993));
#500=CARTESIAN_POINT('',(0.0632646045604478,0.016032382397009,0.0123310543949387));
#501=CARTESIAN_POINT('',(0.0643675690770822,0.0175479290694083,0.010135104377624));
#502=CARTESIAN_POINT('',(0.0632651157612842,0.0186959438243977,0.00771768261911432));
#503=CARTESIAN_POINT('',(0.0606010112926845,0.019058757896341,0.00665364353961718));
#504=CARTESIAN_POINT('',(0.057938849002967,0.0186969009508997,0.00771493905955023));
#505=CARTESIAN_POINT('',(0.0568320700680613,0.0175510363632695,0.0101298648956581));
#506=CARTESIAN_POINT('',(0.0579328772099249,0.0160329916880127,0.0123305137552502));
#507=CARTESIAN_POINT('',(0.0606006295574068,0.0152906257073201,0.0131798656662993));
#508=CARTESIAN_POINT('',(0.0632646045604478,0.016032382397009,0.0123310543949387));
#509=CARTESIAN_POINT('',(0.0606,0.015537979485717,0.012896838469231));
#510=CARTESIAN_POINT('',(0.0676,0.0333465,0.));
#511=CARTESIAN_POINT('',(0.0676,-0.0275771644662753,-0.0275771644662753));
#512=CARTESIAN_POINT('',(0.0676,-0.0230771644662753,-0.0275771644662753));
#513=CARTESIAN_POINT('',(0.0676,-0.0376711072252737,-0.0100939427589983));
#514=CARTESIAN_POINT('',(0.0676,-0.0331711072252737,-0.0100939427589983));
#515=CARTESIAN_POINT('',(0.0676,-0.0275771644662753,0.0275771644662753));
#516=CARTESIAN_POINT('',(0.0676,-0.0230771644662753,0.0275771644662753));
#517=CARTESIAN_POINT('',(0.0676,-0.0376711072252737,0.0100939427589983));
#518=CARTESIAN_POINT('',(0.0676,-0.0331711072252737,0.0100939427589983));
#519=CARTESIAN_POINT('',(0.0676,0.0275771644662753,-0.0275771644662753));
#520=CARTESIAN_POINT('',(0.0676,0.0320771644662753,-0.0275771644662753));
#521=CARTESIAN_POINT('',(0.0676,0.0376711072252737,-0.0100939427589983));
#522=CARTESIAN_POINT('',(0.0676,0.0421711072252737,-0.0100939427589983));
#523=CARTESIAN_POINT('',(0.0676,0.0275771644662753,0.0275771644662753));
#524=CARTESIAN_POINT('',(0.0676,0.0320771644662753,0.0275771644662753));
#525=CARTESIAN_POINT('',(0.0676,0.0376711072252737,0.0100939427589983));
#526=CARTESIAN_POINT('',(0.0676,0.0421711072252737,0.0100939427589983));
#527=CARTESIAN_POINT('',(0.0676,-0.00446689501404763,0.035));
#528=CARTESIAN_POINT('',(0.0676,-0.0306145390296833,0.035));
#529=CARTESIAN_POINT('',(0.0676,0.,0.));
#530=CARTESIAN_POINT('',(0.0676,-0.0306145390296832,-0.035));
#531=CARTESIAN_POINT('',(0.0676,-0.00446689501404761,-0.035));
#532=CARTESIAN_POINT('',(0.0526831056922674,0.,0.));
#533=CARTESIAN_POINT('',(0.0422,-0.0306145390296833,0.035));
#534=CARTESIAN_POINT('',(0.0536,-0.0306145390296833,0.035));
#535=CARTESIAN_POINT('',(0.0536,0.,0.));
#536=CARTESIAN_POINT('',(0.0536,-0.0306145390296832,-0.035));
#537=CARTESIAN_POINT('',(0.0422,-0.0306145390296832,-0.035));
#538=CARTESIAN_POINT('',(0.0536,0.039,0.));
#539=CARTESIAN_POINT('',(0.0536,-0.0275771644662753,-0.0275771644662753));
#540=CARTESIAN_POINT('',(0.0536,-0.0230771644662753,-0.0275771644662753));
#541=CARTESIAN_POINT('',(0.0536,-0.0376711072252737,-0.0100939427589983));
#542=CARTESIAN_POINT('',(0.0536,-0.0331711072252737,-0.0100939427589983));
#543=CARTESIAN_POINT('',(0.0536,-0.0275771644662753,0.0275771644662753));
#544=CARTESIAN_POINT('',(0.0536,-0.0230771644662753,0.0275771644662753));
#545=CARTESIAN_POINT('',(0.0536,-0.0376711072252737,0.0100939427589983));
#546=CARTESIAN_POINT('',(0.0536,-0.0331711072252737,0.0100939427589983));
#547=CARTESIAN_POINT('',(0.0536,0.0275771644662753,-0.0275771644662753));
#548=CARTESIAN_POINT('',(0.0536,0.0320771644662753,-0.0275771644662753));
#549=CARTESIAN_POINT('',(0.0536,0.0376711072252737,-0.0100939427589983));
#550=CARTESIAN_POINT('',(0.0536,0.0421711072252737,-0.0100939427589983));
#551=CARTESIAN_POINT('',(0.0536,0.0275771644662753,0.0275771644662753));
#552=CARTESIAN_POINT('',(0.0536,0.0320771644662753,0.0275771644662753));
#553=CARTESIAN_POINT('',(0.0536,0.0376711072252737,0.0100939427589983));
#554=CARTESIAN_POINT('',(0.0536,0.0421711072252737,0.0100939427589983));
#555=CARTESIAN_POINT('',(0.0536,0.,0.));
#556=CARTESIAN_POINT('',(0.0536,0.0315,0.));
#557=CARTESIAN_POINT('',(0.0536,0.039,0.035));
#558=CARTESIAN_POINT('',(0.0536,0.039,-0.035));
#559=CARTESIAN_POINT('',(-0.0254,0.0258465,0.));
#560=CARTESIAN_POINT('',(-0.0254,0.,0.));
#561=CARTESIAN_POINT('',(-0.0254,0.0315,0.));
#562=CARTESIAN_POINT('',(0.0526831056922674,0.,0.));
#563=CARTESIAN_POINT('',(0.0422,-0.00446689501404761,-0.035));
#564=CARTESIAN_POINT('',(0.0422,-0.00446689501404763,0.035));
#565=CARTESIAN_POINT('',(0.0676,0.0376711072252737,0.0100939427589983));
#566=CARTESIAN_POINT('',(0.0676,0.0275771644662753,0.0275771644662753));
#567=CARTESIAN_POINT('',(0.0676,0.0376711072252737,-0.0100939427589983));
#568=CARTESIAN_POINT('',(0.0676,0.0275771644662753,-0.0275771644662753));
#569=CARTESIAN_POINT('',(0.0676,-0.0376711072252737,0.0100939427589983));
#570=CARTESIAN_POINT('',(0.0676,-0.0275771644662753,0.0275771644662753));
#571=CARTESIAN_POINT('',(0.0676,-0.0376711072252737,-0.0100939427589983));
#572=CARTESIAN_POINT('',(0.0676,-0.0275771644662753,-0.0275771644662753));
#573=CARTESIAN_POINT('',(0.0606,0.,0.));
#574=MECHANICAL_DESIGN_GEOMETRIC_PRESENTATION_REPRESENTATION('',(#323),
#575);
#575=(
GEOMETRIC_REPRESENTATION_CONTEXT(3)
GLOBAL_UNCERTAINTY_ASSIGNED_CONTEXT((#576))
GLOBAL_UNIT_ASSIGNED_CONTEXT((#579,#578,#577))
REPRESENTATION_CONTEXT('40 x 10 Ball Nut','TOP_LEVEL_ASSEMBLY_PART')
);
#576=UNCERTAINTY_MEASURE_WITH_UNIT(LENGTH_MEASURE(5.E-6),#579,
'DISTANCE_ACCURACY_VALUE','Maximum Tolerance applied to model');
#577=(
NAMED_UNIT(*)
SI_UNIT($,.STERADIAN.)
SOLID_ANGLE_UNIT()
);
#578=(
NAMED_UNIT(*)
PLANE_ANGLE_UNIT()
SI_UNIT($,.RADIAN.)
);
#579=(
LENGTH_UNIT()
NAMED_UNIT(*)
SI_UNIT($,.METRE.)
);
#580=PRODUCT_DEFINITION_SHAPE('','',#581);
#581=PRODUCT_DEFINITION('','',#583,#582);
#582=PRODUCT_DEFINITION_CONTEXT('',#589,'design');
#583=PRODUCT_DEFINITION_FORMATION_WITH_SPECIFIED_SOURCE('','',#585,
 .NOT_KNOWN.);
#584=PRODUCT_RELATED_PRODUCT_CATEGORY('','',(#585));
#585=PRODUCT('40 x 10 Ball Nut','40 x 10 Ball Nut','40 x 10 Ball Nut',(#587));
#586=PRODUCT_CATEGORY('','');
#587=PRODUCT_CONTEXT('',#589,'mechanical');
#588=APPLICATION_PROTOCOL_DEFINITION('international standard',
'ap242_managed_model_based_3d_engineering',2011,#589);
#589=APPLICATION_CONTEXT('managed model based 3d engineering');
ENDSEC;
END-ISO-10303-21;
