ISO-10303-21;
HEADER;
/* Generated by software containing ST-Developer
 * from STEP Tools, Inc. (www.steptools.com) 
 */
/* OPTION: using custom renumber hook */

FILE_DESCRIPTION(
/* description */ ('STEP AP242',
'CAx-IF Rec.Pracs.---Representation and Presentation of Product Manufa
cturing Information (PMI)---4.0---2014-10-13',
'CAx-IF Rec.Pracs.---3D Tessellated Geometry---0.4---2014-09-14','2;1'),

/* implementation_level */ '2;1');

FILE_NAME(
/* name */ '66bca4cf96cad025eb1712b8',
/* time_stamp */ '2024-08-14T12:36:31Z',
/* author */ (''),
/* organization */ (''),
/* preprocessor_version */ 'ST-DEVELOPER v20',
/* originating_system */ '  ',
/* authorisation */ '  ');

FILE_SCHEMA (('AP242_MANAGED_MODEL_BASED_3D_ENGINEERING_MIM_LF { 1 0 10303 442 1 1 4 }'));
ENDSEC;

DATA;
#10=SHAPE_REPRESENTATION_RELATIONSHIP('','',#293,#11);
#11=ADVANCED_BREP_SHAPE_REPRESENTATION('',(#291),#507);
#12=PLANE('',#316);
#13=PLANE('',#319);
#14=PLANE('',#324);
#15=PLANE('',#327);
#16=PLANE('',#328);
#17=B_SPLINE_CURVE_WITH_KNOTS('',3,(#423,#424,#425,#426,#427,#428,#429,
#430,#431,#432,#433),.UNSPECIFIED.,.T.,.F.,(1,1,1,1,1,1,1,1,1,1,1,1,1,1,
1),(-0.00586380603718073,-0.00390920402478715,-0.00195460201239358,0.,0.00195460201239358,
0.00390920402478715,0.00586380603718073,0.00781840804957431,0.00977301006196789,
0.0117276120743615,0.013682214086755,0.0156368160991486,0.0175914181115422,
0.0195460201239358,0.0215006221363293),.UNSPECIFIED.);
#18=B_SPLINE_CURVE_WITH_KNOTS('',3,(#440,#441,#442,#443,#444,#445,#446,
#447,#448,#449,#450),.UNSPECIFIED.,.T.,.F.,(1,1,1,1,1,1,1,1,1,1,1,1,1,1,
1),(-0.00587503682817753,-0.00391669121878502,-0.00195834560939251,3.46944695195361E-18,
0.00195834560939252,0.00391669121878503,0.00587503682817754,0.00783338243757005,
0.00979172804696256,0.0117500736563551,0.0137084192657476,0.0156667648751401,
0.0176251104845326,0.0195834560939251,0.0215418017033176),.UNSPECIFIED.);
#19=LINE('',#418,#27);
#20=LINE('',#422,#28);
#21=LINE('',#480,#29);
#22=LINE('',#484,#30);
#23=LINE('',#493,#31);
#24=LINE('',#494,#32);
#25=LINE('',#496,#33);
#26=LINE('',#497,#34);
#27=VECTOR('',#337,1.);
#28=VECTOR('',#340,1.);
#29=VECTOR('',#381,1.);
#30=VECTOR('',#384,1.);
#31=VECTOR('',#393,1.);
#32=VECTOR('',#394,1.);
#33=VECTOR('',#397,1.);
#34=VECTOR('',#398,1.);
#35=ORIENTED_EDGE('',*,*,#95,.T.);
#36=ORIENTED_EDGE('',*,*,#96,.T.);
#37=ORIENTED_EDGE('',*,*,#97,.F.);
#38=ORIENTED_EDGE('',*,*,#98,.F.);
#39=ORIENTED_EDGE('',*,*,#99,.T.);
#40=ORIENTED_EDGE('',*,*,#100,.T.);
#41=ORIENTED_EDGE('',*,*,#101,.F.);
#42=ORIENTED_EDGE('',*,*,#102,.T.);
#43=ORIENTED_EDGE('',*,*,#103,.T.);
#44=ORIENTED_EDGE('',*,*,#104,.T.);
#45=ORIENTED_EDGE('',*,*,#105,.T.);
#46=ORIENTED_EDGE('',*,*,#106,.T.);
#47=ORIENTED_EDGE('',*,*,#107,.T.);
#48=ORIENTED_EDGE('',*,*,#108,.T.);
#49=ORIENTED_EDGE('',*,*,#109,.F.);
#50=ORIENTED_EDGE('',*,*,#110,.F.);
#51=ORIENTED_EDGE('',*,*,#111,.F.);
#52=ORIENTED_EDGE('',*,*,#112,.F.);
#53=ORIENTED_EDGE('',*,*,#108,.F.);
#54=ORIENTED_EDGE('',*,*,#106,.F.);
#55=ORIENTED_EDGE('',*,*,#104,.F.);
#56=ORIENTED_EDGE('',*,*,#110,.T.);
#57=ORIENTED_EDGE('',*,*,#112,.T.);
#58=ORIENTED_EDGE('',*,*,#113,.T.);
#59=ORIENTED_EDGE('',*,*,#100,.F.);
#60=ORIENTED_EDGE('',*,*,#97,.T.);
#61=ORIENTED_EDGE('',*,*,#114,.T.);
#62=ORIENTED_EDGE('',*,*,#115,.T.);
#63=ORIENTED_EDGE('',*,*,#116,.F.);
#64=ORIENTED_EDGE('',*,*,#107,.F.);
#65=ORIENTED_EDGE('',*,*,#105,.F.);
#66=ORIENTED_EDGE('',*,*,#103,.F.);
#67=ORIENTED_EDGE('',*,*,#109,.T.);
#68=ORIENTED_EDGE('',*,*,#111,.T.);
#69=ORIENTED_EDGE('',*,*,#117,.T.);
#70=ORIENTED_EDGE('',*,*,#118,.T.);
#71=ORIENTED_EDGE('',*,*,#119,.F.);
#72=ORIENTED_EDGE('',*,*,#120,.T.);
#73=ORIENTED_EDGE('',*,*,#95,.F.);
#74=ORIENTED_EDGE('',*,*,#121,.F.);
#75=ORIENTED_EDGE('',*,*,#122,.F.);
#76=ORIENTED_EDGE('',*,*,#119,.T.);
#77=ORIENTED_EDGE('',*,*,#123,.T.);
#78=ORIENTED_EDGE('',*,*,#115,.F.);
#79=ORIENTED_EDGE('',*,*,#101,.T.);
#80=ORIENTED_EDGE('',*,*,#124,.F.);
#81=ORIENTED_EDGE('',*,*,#124,.T.);
#82=ORIENTED_EDGE('',*,*,#118,.F.);
#83=ORIENTED_EDGE('',*,*,#121,.T.);
#84=ORIENTED_EDGE('',*,*,#98,.T.);
#85=ORIENTED_EDGE('',*,*,#116,.T.);
#86=ORIENTED_EDGE('',*,*,#123,.F.);
#87=ORIENTED_EDGE('',*,*,#122,.T.);
#88=ORIENTED_EDGE('',*,*,#114,.F.);
#89=ORIENTED_EDGE('',*,*,#96,.F.);
#90=ORIENTED_EDGE('',*,*,#120,.F.);
#91=ORIENTED_EDGE('',*,*,#117,.F.);
#92=ORIENTED_EDGE('',*,*,#113,.F.);
#93=ORIENTED_EDGE('',*,*,#102,.F.);
#94=ORIENTED_EDGE('',*,*,#99,.F.);
#95=EDGE_CURVE('',#125,#126,#151,.T.);
#96=EDGE_CURVE('',#126,#127,#19,.T.);
#97=EDGE_CURVE('',#128,#127,#152,.T.);
#98=EDGE_CURVE('',#125,#128,#20,.T.);
#99=EDGE_CURVE('',#129,#129,#17,.T.);
#100=EDGE_CURVE('',#130,#130,#153,.T.);
#101=EDGE_CURVE('',#131,#131,#154,.T.);
#102=EDGE_CURVE('',#132,#132,#18,.T.);
#103=EDGE_CURVE('',#133,#133,#155,.F.);
#104=EDGE_CURVE('',#134,#134,#156,.T.);
#105=EDGE_CURVE('',#135,#135,#157,.F.);
#106=EDGE_CURVE('',#136,#136,#158,.T.);
#107=EDGE_CURVE('',#137,#137,#159,.F.);
#108=EDGE_CURVE('',#138,#138,#160,.T.);
#109=EDGE_CURVE('',#139,#139,#161,.F.);
#110=EDGE_CURVE('',#140,#140,#162,.T.);
#111=EDGE_CURVE('',#141,#141,#163,.F.);
#112=EDGE_CURVE('',#142,#142,#164,.T.);
#113=EDGE_CURVE('',#143,#143,#165,.T.);
#114=EDGE_CURVE('',#127,#144,#21,.T.);
#115=EDGE_CURVE('',#144,#145,#166,.T.);
#116=EDGE_CURVE('',#128,#145,#22,.T.);
#117=EDGE_CURVE('',#146,#146,#167,.F.);
#118=EDGE_CURVE('',#147,#147,#168,.T.);
#119=EDGE_CURVE('',#148,#149,#169,.T.);
#120=EDGE_CURVE('',#148,#126,#23,.T.);
#121=EDGE_CURVE('',#149,#125,#24,.T.);
#122=EDGE_CURVE('',#148,#144,#25,.T.);
#123=EDGE_CURVE('',#149,#145,#26,.T.);
#124=EDGE_CURVE('',#150,#150,#170,.T.);
#125=VERTEX_POINT('',#416);
#126=VERTEX_POINT('',#417);
#127=VERTEX_POINT('',#419);
#128=VERTEX_POINT('',#421);
#129=VERTEX_POINT('',#434);
#130=VERTEX_POINT('',#437);
#131=VERTEX_POINT('',#439);
#132=VERTEX_POINT('',#451);
#133=VERTEX_POINT('',#454);
#134=VERTEX_POINT('',#456);
#135=VERTEX_POINT('',#459);
#136=VERTEX_POINT('',#461);
#137=VERTEX_POINT('',#464);
#138=VERTEX_POINT('',#466);
#139=VERTEX_POINT('',#469);
#140=VERTEX_POINT('',#471);
#141=VERTEX_POINT('',#474);
#142=VERTEX_POINT('',#476);
#143=VERTEX_POINT('',#479);
#144=VERTEX_POINT('',#481);
#145=VERTEX_POINT('',#483);
#146=VERTEX_POINT('',#487);
#147=VERTEX_POINT('',#489);
#148=VERTEX_POINT('',#491);
#149=VERTEX_POINT('',#492);
#150=VERTEX_POINT('',#500);
#151=CIRCLE('',#296,0.031);
#152=CIRCLE('',#297,0.031);
#153=CIRCLE('',#299,0.013);
#154=CIRCLE('',#300,0.013);
#155=CIRCLE('',#302,0.0033);
#156=CIRCLE('',#303,0.0033);
#157=CIRCLE('',#305,0.0033);
#158=CIRCLE('',#306,0.0033);
#159=CIRCLE('',#308,0.0033);
#160=CIRCLE('',#309,0.0033);
#161=CIRCLE('',#311,0.0033);
#162=CIRCLE('',#312,0.0033);
#163=CIRCLE('',#314,0.0033);
#164=CIRCLE('',#315,0.0033);
#165=CIRCLE('',#317,0.0033);
#166=CIRCLE('',#318,0.031);
#167=CIRCLE('',#320,0.0033);
#168=CIRCLE('',#321,0.02);
#169=CIRCLE('',#322,0.031);
#170=CIRCLE('',#325,0.02);
#171=EDGE_LOOP('',(#35,#36,#37,#38));
#172=EDGE_LOOP('',(#39));
#173=EDGE_LOOP('',(#40));
#174=EDGE_LOOP('',(#41));
#175=EDGE_LOOP('',(#42));
#176=EDGE_LOOP('',(#43));
#177=EDGE_LOOP('',(#44));
#178=EDGE_LOOP('',(#45));
#179=EDGE_LOOP('',(#46));
#180=EDGE_LOOP('',(#47));
#181=EDGE_LOOP('',(#48));
#182=EDGE_LOOP('',(#49));
#183=EDGE_LOOP('',(#50));
#184=EDGE_LOOP('',(#51));
#185=EDGE_LOOP('',(#52));
#186=EDGE_LOOP('',(#53));
#187=EDGE_LOOP('',(#54));
#188=EDGE_LOOP('',(#55));
#189=EDGE_LOOP('',(#56));
#190=EDGE_LOOP('',(#57));
#191=EDGE_LOOP('',(#58));
#192=EDGE_LOOP('',(#59));
#193=EDGE_LOOP('',(#60,#61,#62,#63));
#194=EDGE_LOOP('',(#64));
#195=EDGE_LOOP('',(#65));
#196=EDGE_LOOP('',(#66));
#197=EDGE_LOOP('',(#67));
#198=EDGE_LOOP('',(#68));
#199=EDGE_LOOP('',(#69));
#200=EDGE_LOOP('',(#70));
#201=EDGE_LOOP('',(#71,#72,#73,#74));
#202=EDGE_LOOP('',(#75,#76,#77,#78));
#203=EDGE_LOOP('',(#79));
#204=EDGE_LOOP('',(#80));
#205=EDGE_LOOP('',(#81));
#206=EDGE_LOOP('',(#82));
#207=EDGE_LOOP('',(#83,#84,#85,#86));
#208=EDGE_LOOP('',(#87,#88,#89,#90));
#209=EDGE_LOOP('',(#91));
#210=EDGE_LOOP('',(#92));
#211=EDGE_LOOP('',(#93));
#212=EDGE_LOOP('',(#94));
#213=FACE_BOUND('',#171,.T.);
#214=FACE_BOUND('',#172,.T.);
#215=FACE_BOUND('',#173,.T.);
#216=FACE_BOUND('',#174,.T.);
#217=FACE_BOUND('',#175,.T.);
#218=FACE_BOUND('',#176,.T.);
#219=FACE_BOUND('',#177,.T.);
#220=FACE_BOUND('',#178,.T.);
#221=FACE_BOUND('',#179,.T.);
#222=FACE_BOUND('',#180,.T.);
#223=FACE_BOUND('',#181,.T.);
#224=FACE_BOUND('',#182,.T.);
#225=FACE_BOUND('',#183,.T.);
#226=FACE_BOUND('',#184,.T.);
#227=FACE_BOUND('',#185,.T.);
#228=FACE_BOUND('',#186,.T.);
#229=FACE_BOUND('',#187,.T.);
#230=FACE_BOUND('',#188,.T.);
#231=FACE_BOUND('',#189,.T.);
#232=FACE_BOUND('',#190,.T.);
#233=FACE_BOUND('',#191,.T.);
#234=FACE_BOUND('',#192,.T.);
#235=FACE_BOUND('',#193,.T.);
#236=FACE_BOUND('',#194,.T.);
#237=FACE_BOUND('',#195,.T.);
#238=FACE_BOUND('',#196,.T.);
#239=FACE_BOUND('',#197,.T.);
#240=FACE_BOUND('',#198,.T.);
#241=FACE_BOUND('',#199,.T.);
#242=FACE_BOUND('',#200,.T.);
#243=FACE_BOUND('',#201,.T.);
#244=FACE_BOUND('',#202,.T.);
#245=FACE_BOUND('',#203,.T.);
#246=FACE_BOUND('',#204,.T.);
#247=FACE_BOUND('',#205,.T.);
#248=FACE_BOUND('',#206,.T.);
#249=FACE_BOUND('',#207,.T.);
#250=FACE_BOUND('',#208,.T.);
#251=FACE_BOUND('',#209,.T.);
#252=FACE_BOUND('',#210,.T.);
#253=FACE_BOUND('',#211,.T.);
#254=FACE_BOUND('',#212,.T.);
#255=CYLINDRICAL_SURFACE('',#295,0.031);
#256=CYLINDRICAL_SURFACE('',#298,0.013);
#257=CYLINDRICAL_SURFACE('',#301,0.0033);
#258=CYLINDRICAL_SURFACE('',#304,0.0033);
#259=CYLINDRICAL_SURFACE('',#307,0.0033);
#260=CYLINDRICAL_SURFACE('',#310,0.0033);
#261=CYLINDRICAL_SURFACE('',#313,0.0033);
#262=CYLINDRICAL_SURFACE('',#323,0.031);
#263=CYLINDRICAL_SURFACE('',#326,0.02);
#264=CYLINDRICAL_SURFACE('',#329,0.0033);
#265=CYLINDRICAL_SURFACE('',#330,0.0025);
#266=ADVANCED_FACE('',(#213,#214),#255,.T.);
#267=ADVANCED_FACE('',(#215,#216,#217),#256,.F.);
#268=ADVANCED_FACE('',(#218,#219),#257,.F.);
#269=ADVANCED_FACE('',(#220,#221),#258,.F.);
#270=ADVANCED_FACE('',(#222,#223),#259,.F.);
#271=ADVANCED_FACE('',(#224,#225),#260,.F.);
#272=ADVANCED_FACE('',(#226,#227),#261,.F.);
#273=ADVANCED_FACE('',(#228,#229,#230,#231,#232,#233,#234,#235),#12,.T.);
#274=ADVANCED_FACE('',(#236,#237,#238,#239,#240,#241,#242,#243),#13,.T.);
#275=ADVANCED_FACE('',(#244),#262,.T.);
#276=ADVANCED_FACE('',(#245,#246),#14,.T.);
#277=ADVANCED_FACE('',(#247,#248),#263,.T.);
#278=ADVANCED_FACE('',(#249),#15,.F.);
#279=ADVANCED_FACE('',(#250),#16,.T.);
#280=ADVANCED_FACE('',(#251,#252),#264,.F.);
#281=ADVANCED_FACE('',(#253,#254),#265,.F.);
#282=CLOSED_SHELL('',(#266,#267,#268,#269,#270,#271,#272,#273,#274,#275,
#276,#277,#278,#279,#280,#281));
#283=STYLED_ITEM('',(#284),#291);
#284=PRESENTATION_STYLE_ASSIGNMENT((#285));
#285=SURFACE_STYLE_USAGE(.BOTH.,#286);
#286=SURFACE_SIDE_STYLE('',(#287));
#287=SURFACE_STYLE_FILL_AREA(#288);
#288=FILL_AREA_STYLE('',(#289));
#289=FILL_AREA_STYLE_COLOUR('',#290);
#290=COLOUR_RGB('',0.615686274509804,0.811764705882353,0.929411764705882);
#291=MANIFOLD_SOLID_BREP('2505 Ball Nut',#282);
#292=SHAPE_DEFINITION_REPRESENTATION(#512,#293);
#293=SHAPE_REPRESENTATION('2505 Ball Nut',(#294),#507);
#294=AXIS2_PLACEMENT_3D('',#413,#331,#332);
#295=AXIS2_PLACEMENT_3D('',#414,#333,#334);
#296=AXIS2_PLACEMENT_3D('',#415,#335,#336);
#297=AXIS2_PLACEMENT_3D('',#420,#338,#339);
#298=AXIS2_PLACEMENT_3D('',#435,#341,#342);
#299=AXIS2_PLACEMENT_3D('',#436,#343,#344);
#300=AXIS2_PLACEMENT_3D('',#438,#345,#346);
#301=AXIS2_PLACEMENT_3D('',#452,#347,#348);
#302=AXIS2_PLACEMENT_3D('',#453,#349,#350);
#303=AXIS2_PLACEMENT_3D('',#455,#351,#352);
#304=AXIS2_PLACEMENT_3D('',#457,#353,#354);
#305=AXIS2_PLACEMENT_3D('',#458,#355,#356);
#306=AXIS2_PLACEMENT_3D('',#460,#357,#358);
#307=AXIS2_PLACEMENT_3D('',#462,#359,#360);
#308=AXIS2_PLACEMENT_3D('',#463,#361,#362);
#309=AXIS2_PLACEMENT_3D('',#465,#363,#364);
#310=AXIS2_PLACEMENT_3D('',#467,#365,#366);
#311=AXIS2_PLACEMENT_3D('',#468,#367,#368);
#312=AXIS2_PLACEMENT_3D('',#470,#369,#370);
#313=AXIS2_PLACEMENT_3D('',#472,#371,#372);
#314=AXIS2_PLACEMENT_3D('',#473,#373,#374);
#315=AXIS2_PLACEMENT_3D('',#475,#375,#376);
#316=AXIS2_PLACEMENT_3D('',#477,#377,#378);
#317=AXIS2_PLACEMENT_3D('',#478,#379,#380);
#318=AXIS2_PLACEMENT_3D('',#482,#382,#383);
#319=AXIS2_PLACEMENT_3D('',#485,#385,#386);
#320=AXIS2_PLACEMENT_3D('',#486,#387,#388);
#321=AXIS2_PLACEMENT_3D('',#488,#389,#390);
#322=AXIS2_PLACEMENT_3D('',#490,#391,#392);
#323=AXIS2_PLACEMENT_3D('',#495,#395,#396);
#324=AXIS2_PLACEMENT_3D('',#498,#399,#400);
#325=AXIS2_PLACEMENT_3D('',#499,#401,#402);
#326=AXIS2_PLACEMENT_3D('',#501,#403,#404);
#327=AXIS2_PLACEMENT_3D('',#502,#405,#406);
#328=AXIS2_PLACEMENT_3D('',#503,#407,#408);
#329=AXIS2_PLACEMENT_3D('',#504,#409,#410);
#330=AXIS2_PLACEMENT_3D('',#505,#411,#412);
#331=DIRECTION('',(0.,0.,1.));
#332=DIRECTION('',(1.,0.,0.));
#333=DIRECTION('',(-1.,0.,0.));
#334=DIRECTION('',(0.,0.,1.));
#335=DIRECTION('',(-1.,0.,0.));
#336=DIRECTION('',(0.,0.,1.));
#337=DIRECTION('',(-1.,0.,0.));
#338=DIRECTION('',(-1.,0.,0.));
#339=DIRECTION('',(0.,0.,1.));
#340=DIRECTION('',(-1.,0.,0.));
#341=DIRECTION('',(-1.,0.,0.));
#342=DIRECTION('',(0.,0.,1.));
#343=DIRECTION('',(-1.,0.,0.));
#344=DIRECTION('',(0.,0.,1.));
#345=DIRECTION('',(-1.,0.,0.));
#346=DIRECTION('',(0.,0.,1.));
#347=DIRECTION('',(1.,0.,0.));
#348=DIRECTION('',(0.,1.,6.12323399573677E-17));
#349=DIRECTION('',(-1.,0.,0.));
#350=DIRECTION('',(0.,1.,6.12323399573677E-17));
#351=DIRECTION('',(-1.,0.,0.));
#352=DIRECTION('',(0.,1.,6.12323399573677E-17));
#353=DIRECTION('',(1.,0.,0.));
#354=DIRECTION('',(0.,0.707106781186548,0.707106781186548));
#355=DIRECTION('',(-1.,0.,0.));
#356=DIRECTION('',(0.,0.707106781186548,0.707106781186548));
#357=DIRECTION('',(-1.,0.,0.));
#358=DIRECTION('',(0.,0.707106781186548,0.707106781186548));
#359=DIRECTION('',(1.,0.,0.));
#360=DIRECTION('',(0.,0.,1.));
#361=DIRECTION('',(-1.,0.,0.));
#362=DIRECTION('',(0.,0.,1.));
#363=DIRECTION('',(-1.,0.,0.));
#364=DIRECTION('',(0.,0.,1.));
#365=DIRECTION('',(1.,0.,0.));
#366=DIRECTION('',(0.,1.,-6.12323399573677E-17));
#367=DIRECTION('',(1.,0.,0.));
#368=DIRECTION('',(0.,1.,-6.12323399573677E-17));
#369=DIRECTION('',(1.,0.,0.));
#370=DIRECTION('',(0.,1.,-6.12323399573677E-17));
#371=DIRECTION('',(1.,0.,0.));
#372=DIRECTION('',(0.,0.707106781186548,-0.707106781186548));
#373=DIRECTION('',(1.,0.,0.));
#374=DIRECTION('',(0.,0.707106781186548,-0.707106781186548));
#375=DIRECTION('',(1.,0.,0.));
#376=DIRECTION('',(0.,0.707106781186548,-0.707106781186548));
#377=DIRECTION('',(-1.,0.,0.));
#378=DIRECTION('',(0.,0.,1.));
#379=DIRECTION('',(1.,0.,0.));
#380=DIRECTION('',(0.,0.,-1.));
#381=DIRECTION('',(0.,-8.55223041731073E-17,-1.));
#382=DIRECTION('',(-1.,0.,0.));
#383=DIRECTION('',(0.,0.,1.));
#384=DIRECTION('',(0.,-8.55223041731073E-17,-1.));
#385=DIRECTION('',(1.,0.,0.));
#386=DIRECTION('',(0.,0.,-1.));
#387=DIRECTION('',(1.,0.,0.));
#388=DIRECTION('',(0.,0.,-1.));
#389=DIRECTION('',(-1.,0.,0.));
#390=DIRECTION('',(0.,0.,1.));
#391=DIRECTION('',(-1.,0.,0.));
#392=DIRECTION('',(0.,0.,1.));
#393=DIRECTION('',(0.,8.55223041731074E-17,1.));
#394=DIRECTION('',(0.,8.55223041731074E-17,1.));
#395=DIRECTION('',(-1.,0.,0.));
#396=DIRECTION('',(0.,0.,1.));
#397=DIRECTION('',(-1.,0.,0.));
#398=DIRECTION('',(-1.,0.,0.));
#399=DIRECTION('',(1.,0.,0.));
#400=DIRECTION('',(0.,0.,-1.));
#401=DIRECTION('',(-1.,0.,0.));
#402=DIRECTION('',(0.,0.,1.));
#403=DIRECTION('',(-1.,0.,0.));
#404=DIRECTION('',(0.,0.,1.));
#405=DIRECTION('',(0.,1.,-8.55223041731073E-17));
#406=DIRECTION('',(0.,8.55223041731074E-17,1.));
#407=DIRECTION('',(0.,1.,-8.55223041731073E-17));
#408=DIRECTION('',(0.,8.55223041731074E-17,1.));
#409=DIRECTION('',(1.,0.,0.));
#410=DIRECTION('',(0.,0.,-1.));
#411=DIRECTION('',(0.,-0.38268343236509,-0.923879532511287));
#412=DIRECTION('',(0.,0.923879532511287,-0.38268343236509));
#413=CARTESIAN_POINT('',(0.,0.,0.));
#414=CARTESIAN_POINT('',(0.000131379812955856,0.,0.));
#415=CARTESIAN_POINT('',(-0.0152686201870441,0.,0.));
#416=CARTESIAN_POINT('',(-0.0152686201870441,-0.024,0.0196214168703486));
#417=CARTESIAN_POINT('',(-0.0152686201870441,0.024,0.0196214168703485));
#418=CARTESIAN_POINT('',(0.000131379812955856,0.024,0.0196214168703485));
#419=CARTESIAN_POINT('',(-0.0252686201870441,0.024,0.0196214168703485));
#420=CARTESIAN_POINT('',(-0.0252686201870441,0.,0.));
#421=CARTESIAN_POINT('',(-0.0252686201870441,-0.024,0.0196214168703486));
#422=CARTESIAN_POINT('',(0.000131379812955856,-0.024,0.0196214168703486));
#423=CARTESIAN_POINT('',(-0.022226090126428,0.0100319031168726,0.029344112975474));
#424=CARTESIAN_POINT('',(-0.0230397314101215,0.0118733036186039,0.0286633959725216));
#425=CARTESIAN_POINT('',(-0.0222267053553507,0.0136540008286186,0.0278438961815391));
#426=CARTESIAN_POINT('',(-0.0202707318705705,0.0143741449394208,0.0274635630171238));
#427=CARTESIAN_POINT('',(-0.0183102053691139,0.0136548895418989,0.0278434846896429));
#428=CARTESIAN_POINT('',(-0.0174984673852707,0.0118732314718476,0.0286633605857198));
#429=CARTESIAN_POINT('',(-0.018307647198181,0.0100363279974421,0.0293425845025221));
#430=CARTESIAN_POINT('',(-0.0202658292931604,0.00925521546153423,0.0295838588050042));
#431=CARTESIAN_POINT('',(-0.022226090126428,0.0100319031168726,0.029344112975474));
#432=CARTESIAN_POINT('',(-0.0230397314101215,0.0118733036186039,0.0286633959725216));
#433=CARTESIAN_POINT('',(-0.0222267053553507,0.0136540008286186,0.0278438961815391));
#434=CARTESIAN_POINT('',(-0.0227686201870442,0.0118631864033178,0.0286402655078499));
#435=CARTESIAN_POINT('',(0.000131379812955856,0.,0.));
#436=CARTESIAN_POINT('',(-0.0252686201870441,0.,0.));
#437=CARTESIAN_POINT('',(-0.0252686201870441,0.,0.013));
#438=CARTESIAN_POINT('',(0.0257313798129559,0.,0.));
#439=CARTESIAN_POINT('',(0.0257313798129559,0.,0.013));
#440=CARTESIAN_POINT('',(-0.0183075741417392,0.00673738749873432,0.0111506017714362));
#441=CARTESIAN_POINT('',(-0.0202690648421269,0.00741879240600828,0.0106691176841007));
#442=CARTESIAN_POINT('',(-0.0222278876120182,0.00673779666799052,0.0111502078887152));
#443=CARTESIAN_POINT('',(-0.0230389472517598,0.00500020920623211,0.0120649471704522));
#444=CARTESIAN_POINT('',(-0.0222280419126885,0.00311881863321344,0.0126492329045109));
#445=CARTESIAN_POINT('',(-0.0202694825338847,0.00229956181250186,0.0127897452724389));
#446=CARTESIAN_POINT('',(-0.0183117991799004,0.00311690315094872,0.01264956912722));
#447=CARTESIAN_POINT('',(-0.0174980879392237,0.00499623791629895,0.012066650260721));
#448=CARTESIAN_POINT('',(-0.0183075741417392,0.00673738749873432,0.0111506017714362));
#449=CARTESIAN_POINT('',(-0.0202690648421269,0.00741879240600828,0.0106691176841007));
#450=CARTESIAN_POINT('',(-0.0222278876120182,0.00673779666799052,0.0111502078887152));
#451=CARTESIAN_POINT('',(-0.0202686201870441,0.00719172563179301,0.010829546732759));
#452=CARTESIAN_POINT('',(-0.0252686201870441,-0.018031222920257,-0.018031222920257));
#453=CARTESIAN_POINT('',(-0.0152686201870441,-0.018031222920257,-0.018031222920257));
#454=CARTESIAN_POINT('',(-0.0152686201870441,-0.0147312229202569,-0.018031222920257));
#455=CARTESIAN_POINT('',(-0.0252686201870441,-0.018031222920257,-0.018031222920257));
#456=CARTESIAN_POINT('',(-0.0252686201870441,-0.0147312229202569,-0.018031222920257));
#457=CARTESIAN_POINT('',(-0.0252686201870441,1.7347234759768E-18,-0.0255));
#458=CARTESIAN_POINT('',(-0.0152686201870441,1.7347234759768E-18,-0.0255));
#459=CARTESIAN_POINT('',(-0.0152686201870441,0.00233345237791561,-0.0231665476220844));
#460=CARTESIAN_POINT('',(-0.0252686201870441,1.7347234759768E-18,-0.0255));
#461=CARTESIAN_POINT('',(-0.0252686201870441,0.00233345237791561,-0.0231665476220844));
#462=CARTESIAN_POINT('',(-0.0252686201870441,0.018031222920257,-0.018031222920257));
#463=CARTESIAN_POINT('',(-0.0152686201870441,0.018031222920257,-0.018031222920257));
#464=CARTESIAN_POINT('',(-0.0152686201870441,0.018031222920257,-0.0147312229202569));
#465=CARTESIAN_POINT('',(-0.0252686201870441,0.018031222920257,-0.018031222920257));
#466=CARTESIAN_POINT('',(-0.0252686201870441,0.018031222920257,-0.0147312229202569));
#467=CARTESIAN_POINT('',(-0.0252686201870441,-0.018031222920257,0.018031222920257));
#468=CARTESIAN_POINT('',(-0.0152686201870441,-0.018031222920257,0.018031222920257));
#469=CARTESIAN_POINT('',(-0.0152686201870441,-0.0147312229202569,0.018031222920257));
#470=CARTESIAN_POINT('',(-0.0252686201870441,-0.018031222920257,0.018031222920257));
#471=CARTESIAN_POINT('',(-0.0252686201870441,-0.0147312229202569,0.018031222920257));
#472=CARTESIAN_POINT('',(-0.0252686201870441,1.7347234759768E-18,0.0255));
#473=CARTESIAN_POINT('',(-0.0152686201870441,1.7347234759768E-18,0.0255));
#474=CARTESIAN_POINT('',(-0.0152686201870441,0.00233345237791561,0.0231665476220844));
#475=CARTESIAN_POINT('',(-0.0252686201870441,1.7347234759768E-18,0.0255));
#476=CARTESIAN_POINT('',(-0.0252686201870441,0.00233345237791561,0.0231665476220844));
#477=CARTESIAN_POINT('',(-0.0252686201870441,0.,0.022));
#478=CARTESIAN_POINT('',(-0.0252686201870441,0.018031222920257,0.018031222920257));
#479=CARTESIAN_POINT('',(-0.0252686201870441,0.018031222920257,0.0147312229202569));
#480=CARTESIAN_POINT('',(-0.0252686201870441,0.024,0.000262759625911705));
#481=CARTESIAN_POINT('',(-0.0252686201870441,0.024,-0.0196214168703486));
#482=CARTESIAN_POINT('',(-0.0252686201870441,0.,0.));
#483=CARTESIAN_POINT('',(-0.0252686201870441,-0.024,-0.0196214168703485));
#484=CARTESIAN_POINT('',(-0.0252686201870441,-0.024,0.000262759625911726));
#485=CARTESIAN_POINT('',(-0.0152686201870441,0.,0.0255));
#486=CARTESIAN_POINT('',(-0.0152686201870441,0.018031222920257,0.018031222920257));
#487=CARTESIAN_POINT('',(-0.0152686201870441,0.018031222920257,0.0147312229202569));
#488=CARTESIAN_POINT('',(-0.0152686201870441,0.,0.));
#489=CARTESIAN_POINT('',(-0.0152686201870441,0.,0.02));
#490=CARTESIAN_POINT('',(-0.0152686201870441,0.,0.));
#491=CARTESIAN_POINT('',(-0.0152686201870441,0.024,-0.0196214168703486));
#492=CARTESIAN_POINT('',(-0.0152686201870441,-0.024,-0.0196214168703486));
#493=CARTESIAN_POINT('',(-0.0152686201870441,0.024,0.0255));
#494=CARTESIAN_POINT('',(-0.0152686201870441,-0.024,0.0255));
#495=CARTESIAN_POINT('',(0.000131379812955856,0.,0.));
#496=CARTESIAN_POINT('',(0.000131379812955856,0.024,-0.0196214168703486));
#497=CARTESIAN_POINT('',(0.000131379812955856,-0.024,-0.0196214168703485));
#498=CARTESIAN_POINT('',(0.0257313798129559,0.,0.0165));
#499=CARTESIAN_POINT('',(0.0257313798129559,0.,0.));
#500=CARTESIAN_POINT('',(0.0257313798129559,0.,0.02));
#501=CARTESIAN_POINT('',(0.000131379812955856,0.,0.));
#502=CARTESIAN_POINT('',(0.000131379812955853,-0.024,0.000262759625911726));
#503=CARTESIAN_POINT('',(0.000131379812955853,0.024,0.000262759625911705));
#504=CARTESIAN_POINT('',(-0.0252686201870441,0.018031222920257,0.018031222920257));
#505=CARTESIAN_POINT('',(-0.0202686201870441,0.0118631864033178,0.0286402655078499));
#506=MECHANICAL_DESIGN_GEOMETRIC_PRESENTATION_REPRESENTATION('',(#283),
#507);
#507=(
GEOMETRIC_REPRESENTATION_CONTEXT(3)
GLOBAL_UNCERTAINTY_ASSIGNED_CONTEXT((#508))
GLOBAL_UNIT_ASSIGNED_CONTEXT((#511,#510,#509))
REPRESENTATION_CONTEXT('2505 Ball Nut','TOP_LEVEL_ASSEMBLY_PART')
);
#508=UNCERTAINTY_MEASURE_WITH_UNIT(LENGTH_MEASURE(5.E-6),#511,
'DISTANCE_ACCURACY_VALUE','Maximum Tolerance applied to model');
#509=(
NAMED_UNIT(*)
SI_UNIT($,.STERADIAN.)
SOLID_ANGLE_UNIT()
);
#510=(
NAMED_UNIT(*)
PLANE_ANGLE_UNIT()
SI_UNIT($,.RADIAN.)
);
#511=(
LENGTH_UNIT()
NAMED_UNIT(*)
SI_UNIT($,.METRE.)
);
#512=PRODUCT_DEFINITION_SHAPE('','',#513);
#513=PRODUCT_DEFINITION('','',#515,#514);
#514=PRODUCT_DEFINITION_CONTEXT('',#521,'design');
#515=PRODUCT_DEFINITION_FORMATION_WITH_SPECIFIED_SOURCE('','',#517,
 .NOT_KNOWN.);
#516=PRODUCT_RELATED_PRODUCT_CATEGORY('','',(#517));
#517=PRODUCT('2505 Ball Nut','2505 Ball Nut','2505 Ball Nut',(#519));
#518=PRODUCT_CATEGORY('','');
#519=PRODUCT_CONTEXT('',#521,'mechanical');
#520=APPLICATION_PROTOCOL_DEFINITION('international standard',
'ap242_managed_model_based_3d_engineering',2011,#521);
#521=APPLICATION_CONTEXT('managed model based 3d engineering');
ENDSEC;
END-ISO-10303-21;
