ISO-10303-21;
HEADER;
/* Generated by software containing ST-Developer
 * from STEP Tools, Inc. (www.steptools.com) 
 */
/* OPTION: using custom renumber hook */

FILE_DESCRIPTION(
/* description */ ('STEP AP242',
'CAx-IF Rec.Pracs.---Representation and Presentation of Product Manufa
cturing Information (PMI)---4.0---2014-10-13',
'CAx-IF Rec.Pracs.---3D Tessellated Geometry---0.4---2014-09-14','2;1'),

/* implementation_level */ '2;1');

FILE_NAME(
/* name */ '66e2d22e2a04ee68d6519cb7',
/* time_stamp */ '2024-09-12T11:36:14Z',
/* author */ (''),
/* organization */ (''),
/* preprocessor_version */ 'ST-DEVELOPER v20',
/* originating_system */ '  ',
/* authorisation */ '  ');

FILE_SCHEMA (('AP242_MANAGED_MODEL_BASED_3D_ENGINEERING_MIM_LF { 1 0 10303 442 1 1 4 }'));
ENDSEC;

DATA;
#10=SHAPE_REPRESENTATION_RELATIONSHIP('','',#293,#11);
#11=ADVANCED_BREP_SHAPE_REPRESENTATION('',(#291),#507);
#12=PLANE('',#301);
#13=PLANE('',#311);
#14=PLANE('',#319);
#15=PLANE('',#322);
#16=PLANE('',#323);
#17=B_SPLINE_CURVE_WITH_KNOTS('',3,(#423,#424,#425,#426,#427,#428,#429,
#430,#431,#432,#433),.UNSPECIFIED.,.T.,.F.,(1,1,1,1,1,1,1,1,1,1,1,1,1,1,
1),(-0.00586539116434546,-0.0039102607762303,-0.00195513038811515,9.34177181294034E-18,
0.00195513038811517,0.00391026077623032,0.00586539116434548,0.00782052155246063,
0.00977565194057579,0.0117307823286909,0.0136859127168061,0.0156410431049213,
0.0175961734930364,0.0195513038811516,0.0215064342692667),.UNSPECIFIED.);
#18=B_SPLINE_CURVE_WITH_KNOTS('',3,(#440,#441,#442,#443,#444,#445,#446,
#447,#448,#449,#450),.UNSPECIFIED.,.T.,.F.,(1,1,1,1,1,1,1,1,1,1,1,1,1,1,
1),(-0.00589742073349356,-0.00393161382232904,-0.00196580691116452,5.42101086242752E-19,
0.00196580691116452,0.00393161382232904,0.00589742073349356,0.00786322764465808,
0.0098290345558226,0.0117948414669871,0.0137606483781516,0.0157264552893162,
0.0176922622004807,0.0196580691116452,0.0216238760228097),.UNSPECIFIED.);
#19=LINE('',#418,#27);
#20=LINE('',#422,#28);
#21=LINE('',#465,#29);
#22=LINE('',#469,#30);
#23=LINE('',#471,#31);
#24=LINE('',#475,#32);
#25=LINE('',#491,#33);
#26=LINE('',#492,#34);
#27=VECTOR('',#337,1.);
#28=VECTOR('',#340,1.);
#29=VECTOR('',#361,1.);
#30=VECTOR('',#364,1.);
#31=VECTOR('',#367,1.);
#32=VECTOR('',#370,1.);
#33=VECTOR('',#387,1.);
#34=VECTOR('',#388,1.);
#35=ORIENTED_EDGE('',*,*,#95,.F.);
#36=ORIENTED_EDGE('',*,*,#96,.T.);
#37=ORIENTED_EDGE('',*,*,#97,.T.);
#38=ORIENTED_EDGE('',*,*,#98,.F.);
#39=ORIENTED_EDGE('',*,*,#99,.T.);
#40=ORIENTED_EDGE('',*,*,#100,.T.);
#41=ORIENTED_EDGE('',*,*,#101,.F.);
#42=ORIENTED_EDGE('',*,*,#102,.T.);
#43=ORIENTED_EDGE('',*,*,#103,.T.);
#44=ORIENTED_EDGE('',*,*,#104,.T.);
#45=ORIENTED_EDGE('',*,*,#105,.T.);
#46=ORIENTED_EDGE('',*,*,#106,.T.);
#47=ORIENTED_EDGE('',*,*,#107,.T.);
#48=ORIENTED_EDGE('',*,*,#108,.T.);
#49=ORIENTED_EDGE('',*,*,#101,.T.);
#50=ORIENTED_EDGE('',*,*,#97,.F.);
#51=ORIENTED_EDGE('',*,*,#109,.T.);
#52=ORIENTED_EDGE('',*,*,#110,.F.);
#53=ORIENTED_EDGE('',*,*,#111,.F.);
#54=ORIENTED_EDGE('',*,*,#112,.F.);
#55=ORIENTED_EDGE('',*,*,#113,.F.);
#56=ORIENTED_EDGE('',*,*,#114,.T.);
#57=ORIENTED_EDGE('',*,*,#110,.T.);
#58=ORIENTED_EDGE('',*,*,#115,.F.);
#59=ORIENTED_EDGE('',*,*,#116,.F.);
#60=ORIENTED_EDGE('',*,*,#117,.F.);
#61=ORIENTED_EDGE('',*,*,#118,.F.);
#62=ORIENTED_EDGE('',*,*,#119,.F.);
#63=ORIENTED_EDGE('',*,*,#120,.F.);
#64=ORIENTED_EDGE('',*,*,#121,.F.);
#65=ORIENTED_EDGE('',*,*,#113,.T.);
#66=ORIENTED_EDGE('',*,*,#122,.T.);
#67=ORIENTED_EDGE('',*,*,#95,.T.);
#68=ORIENTED_EDGE('',*,*,#123,.F.);
#69=ORIENTED_EDGE('',*,*,#124,.T.);
#70=ORIENTED_EDGE('',*,*,#100,.F.);
#71=ORIENTED_EDGE('',*,*,#121,.T.);
#72=ORIENTED_EDGE('',*,*,#124,.F.);
#73=ORIENTED_EDGE('',*,*,#123,.T.);
#74=ORIENTED_EDGE('',*,*,#98,.T.);
#75=ORIENTED_EDGE('',*,*,#111,.T.);
#76=ORIENTED_EDGE('',*,*,#114,.F.);
#77=ORIENTED_EDGE('',*,*,#112,.T.);
#78=ORIENTED_EDGE('',*,*,#109,.F.);
#79=ORIENTED_EDGE('',*,*,#96,.F.);
#80=ORIENTED_EDGE('',*,*,#122,.F.);
#81=ORIENTED_EDGE('',*,*,#120,.T.);
#82=ORIENTED_EDGE('',*,*,#108,.F.);
#83=ORIENTED_EDGE('',*,*,#119,.T.);
#84=ORIENTED_EDGE('',*,*,#107,.F.);
#85=ORIENTED_EDGE('',*,*,#118,.T.);
#86=ORIENTED_EDGE('',*,*,#106,.F.);
#87=ORIENTED_EDGE('',*,*,#117,.T.);
#88=ORIENTED_EDGE('',*,*,#105,.F.);
#89=ORIENTED_EDGE('',*,*,#116,.T.);
#90=ORIENTED_EDGE('',*,*,#104,.F.);
#91=ORIENTED_EDGE('',*,*,#115,.T.);
#92=ORIENTED_EDGE('',*,*,#103,.F.);
#93=ORIENTED_EDGE('',*,*,#102,.F.);
#94=ORIENTED_EDGE('',*,*,#99,.F.);
#95=EDGE_CURVE('',#125,#126,#151,.T.);
#96=EDGE_CURVE('',#125,#127,#19,.T.);
#97=EDGE_CURVE('',#127,#128,#152,.T.);
#98=EDGE_CURVE('',#126,#128,#20,.T.);
#99=EDGE_CURVE('',#129,#129,#17,.T.);
#100=EDGE_CURVE('',#130,#130,#153,.T.);
#101=EDGE_CURVE('',#131,#131,#154,.T.);
#102=EDGE_CURVE('',#132,#132,#18,.T.);
#103=EDGE_CURVE('',#133,#133,#155,.T.);
#104=EDGE_CURVE('',#134,#134,#156,.T.);
#105=EDGE_CURVE('',#135,#135,#157,.T.);
#106=EDGE_CURVE('',#136,#136,#158,.T.);
#107=EDGE_CURVE('',#137,#137,#159,.T.);
#108=EDGE_CURVE('',#138,#138,#160,.T.);
#109=EDGE_CURVE('',#127,#139,#21,.T.);
#110=EDGE_CURVE('',#140,#139,#161,.T.);
#111=EDGE_CURVE('',#128,#140,#22,.T.);
#112=EDGE_CURVE('',#141,#139,#23,.T.);
#113=EDGE_CURVE('',#142,#141,#162,.T.);
#114=EDGE_CURVE('',#142,#140,#24,.T.);
#115=EDGE_CURVE('',#143,#143,#163,.T.);
#116=EDGE_CURVE('',#144,#144,#164,.T.);
#117=EDGE_CURVE('',#145,#145,#165,.T.);
#118=EDGE_CURVE('',#146,#146,#166,.T.);
#119=EDGE_CURVE('',#147,#147,#167,.T.);
#120=EDGE_CURVE('',#148,#148,#168,.T.);
#121=EDGE_CURVE('',#149,#149,#169,.T.);
#122=EDGE_CURVE('',#141,#125,#25,.T.);
#123=EDGE_CURVE('',#142,#126,#26,.T.);
#124=EDGE_CURVE('',#150,#150,#170,.T.);
#125=VERTEX_POINT('',#416);
#126=VERTEX_POINT('',#417);
#127=VERTEX_POINT('',#419);
#128=VERTEX_POINT('',#421);
#129=VERTEX_POINT('',#434);
#130=VERTEX_POINT('',#437);
#131=VERTEX_POINT('',#439);
#132=VERTEX_POINT('',#451);
#133=VERTEX_POINT('',#454);
#134=VERTEX_POINT('',#456);
#135=VERTEX_POINT('',#458);
#136=VERTEX_POINT('',#460);
#137=VERTEX_POINT('',#462);
#138=VERTEX_POINT('',#464);
#139=VERTEX_POINT('',#466);
#140=VERTEX_POINT('',#468);
#141=VERTEX_POINT('',#472);
#142=VERTEX_POINT('',#474);
#143=VERTEX_POINT('',#478);
#144=VERTEX_POINT('',#480);
#145=VERTEX_POINT('',#482);
#146=VERTEX_POINT('',#484);
#147=VERTEX_POINT('',#486);
#148=VERTEX_POINT('',#488);
#149=VERTEX_POINT('',#490);
#150=VERTEX_POINT('',#495);
#151=CIRCLE('',#296,0.024);
#152=CIRCLE('',#297,0.024);
#153=CIRCLE('',#299,0.0081);
#154=CIRCLE('',#300,0.0081);
#155=CIRCLE('',#302,0.00275);
#156=CIRCLE('',#303,0.00275);
#157=CIRCLE('',#304,0.00275);
#158=CIRCLE('',#305,0.00275);
#159=CIRCLE('',#306,0.00275);
#160=CIRCLE('',#307,0.00275);
#161=CIRCLE('',#308,0.024);
#162=CIRCLE('',#310,0.024);
#163=CIRCLE('',#312,0.00275);
#164=CIRCLE('',#313,0.00275);
#165=CIRCLE('',#314,0.00275);
#166=CIRCLE('',#315,0.00275);
#167=CIRCLE('',#316,0.00275);
#168=CIRCLE('',#317,0.00275);
#169=CIRCLE('',#318,0.014);
#170=CIRCLE('',#320,0.014);
#171=EDGE_LOOP('',(#35,#36,#37,#38));
#172=EDGE_LOOP('',(#39));
#173=EDGE_LOOP('',(#40));
#174=EDGE_LOOP('',(#41));
#175=EDGE_LOOP('',(#42));
#176=EDGE_LOOP('',(#43));
#177=EDGE_LOOP('',(#44));
#178=EDGE_LOOP('',(#45));
#179=EDGE_LOOP('',(#46));
#180=EDGE_LOOP('',(#47));
#181=EDGE_LOOP('',(#48));
#182=EDGE_LOOP('',(#49));
#183=EDGE_LOOP('',(#50,#51,#52,#53));
#184=EDGE_LOOP('',(#54,#55,#56,#57));
#185=EDGE_LOOP('',(#58));
#186=EDGE_LOOP('',(#59));
#187=EDGE_LOOP('',(#60));
#188=EDGE_LOOP('',(#61));
#189=EDGE_LOOP('',(#62));
#190=EDGE_LOOP('',(#63));
#191=EDGE_LOOP('',(#64));
#192=EDGE_LOOP('',(#65,#66,#67,#68));
#193=EDGE_LOOP('',(#69));
#194=EDGE_LOOP('',(#70));
#195=EDGE_LOOP('',(#71));
#196=EDGE_LOOP('',(#72));
#197=EDGE_LOOP('',(#73,#74,#75,#76));
#198=EDGE_LOOP('',(#77,#78,#79,#80));
#199=EDGE_LOOP('',(#81));
#200=EDGE_LOOP('',(#82));
#201=EDGE_LOOP('',(#83));
#202=EDGE_LOOP('',(#84));
#203=EDGE_LOOP('',(#85));
#204=EDGE_LOOP('',(#86));
#205=EDGE_LOOP('',(#87));
#206=EDGE_LOOP('',(#88));
#207=EDGE_LOOP('',(#89));
#208=EDGE_LOOP('',(#90));
#209=EDGE_LOOP('',(#91));
#210=EDGE_LOOP('',(#92));
#211=EDGE_LOOP('',(#93));
#212=EDGE_LOOP('',(#94));
#213=FACE_BOUND('',#171,.T.);
#214=FACE_BOUND('',#172,.T.);
#215=FACE_BOUND('',#173,.T.);
#216=FACE_BOUND('',#174,.T.);
#217=FACE_BOUND('',#175,.T.);
#218=FACE_BOUND('',#176,.T.);
#219=FACE_BOUND('',#177,.T.);
#220=FACE_BOUND('',#178,.T.);
#221=FACE_BOUND('',#179,.T.);
#222=FACE_BOUND('',#180,.T.);
#223=FACE_BOUND('',#181,.T.);
#224=FACE_BOUND('',#182,.T.);
#225=FACE_BOUND('',#183,.T.);
#226=FACE_BOUND('',#184,.T.);
#227=FACE_BOUND('',#185,.T.);
#228=FACE_BOUND('',#186,.T.);
#229=FACE_BOUND('',#187,.T.);
#230=FACE_BOUND('',#188,.T.);
#231=FACE_BOUND('',#189,.T.);
#232=FACE_BOUND('',#190,.T.);
#233=FACE_BOUND('',#191,.T.);
#234=FACE_BOUND('',#192,.T.);
#235=FACE_BOUND('',#193,.T.);
#236=FACE_BOUND('',#194,.T.);
#237=FACE_BOUND('',#195,.T.);
#238=FACE_BOUND('',#196,.T.);
#239=FACE_BOUND('',#197,.T.);
#240=FACE_BOUND('',#198,.T.);
#241=FACE_BOUND('',#199,.T.);
#242=FACE_BOUND('',#200,.T.);
#243=FACE_BOUND('',#201,.T.);
#244=FACE_BOUND('',#202,.T.);
#245=FACE_BOUND('',#203,.T.);
#246=FACE_BOUND('',#204,.T.);
#247=FACE_BOUND('',#205,.T.);
#248=FACE_BOUND('',#206,.T.);
#249=FACE_BOUND('',#207,.T.);
#250=FACE_BOUND('',#208,.T.);
#251=FACE_BOUND('',#209,.T.);
#252=FACE_BOUND('',#210,.T.);
#253=FACE_BOUND('',#211,.T.);
#254=FACE_BOUND('',#212,.T.);
#255=CYLINDRICAL_SURFACE('',#295,0.024);
#256=CYLINDRICAL_SURFACE('',#298,0.0081);
#257=CYLINDRICAL_SURFACE('',#309,0.024);
#258=CYLINDRICAL_SURFACE('',#321,0.014);
#259=CYLINDRICAL_SURFACE('',#324,0.00275);
#260=CYLINDRICAL_SURFACE('',#325,0.00275);
#261=CYLINDRICAL_SURFACE('',#326,0.00275);
#262=CYLINDRICAL_SURFACE('',#327,0.00275);
#263=CYLINDRICAL_SURFACE('',#328,0.00275);
#264=CYLINDRICAL_SURFACE('',#329,0.00275);
#265=CYLINDRICAL_SURFACE('',#330,0.0025);
#266=ADVANCED_FACE('',(#213,#214),#255,.T.);
#267=ADVANCED_FACE('',(#215,#216,#217),#256,.F.);
#268=ADVANCED_FACE('',(#218,#219,#220,#221,#222,#223,#224,#225),#12,.T.);
#269=ADVANCED_FACE('',(#226),#257,.T.);
#270=ADVANCED_FACE('',(#227,#228,#229,#230,#231,#232,#233,#234),#13,.T.);
#271=ADVANCED_FACE('',(#235,#236),#14,.T.);
#272=ADVANCED_FACE('',(#237,#238),#258,.T.);
#273=ADVANCED_FACE('',(#239),#15,.F.);
#274=ADVANCED_FACE('',(#240),#16,.T.);
#275=ADVANCED_FACE('',(#241,#242),#259,.F.);
#276=ADVANCED_FACE('',(#243,#244),#260,.F.);
#277=ADVANCED_FACE('',(#245,#246),#261,.F.);
#278=ADVANCED_FACE('',(#247,#248),#262,.F.);
#279=ADVANCED_FACE('',(#249,#250),#263,.F.);
#280=ADVANCED_FACE('',(#251,#252),#264,.F.);
#281=ADVANCED_FACE('',(#253,#254),#265,.F.);
#282=CLOSED_SHELL('',(#266,#267,#268,#269,#270,#271,#272,#273,#274,#275,
#276,#277,#278,#279,#280,#281));
#283=STYLED_ITEM('',(#284),#291);
#284=PRESENTATION_STYLE_ASSIGNMENT((#285));
#285=SURFACE_STYLE_USAGE(.BOTH.,#286);
#286=SURFACE_SIDE_STYLE('',(#287));
#287=SURFACE_STYLE_FILL_AREA(#288);
#288=FILL_AREA_STYLE('',(#289));
#289=FILL_AREA_STYLE_COLOUR('',#290);
#290=COLOUR_RGB('',0.615686274509804,0.811764705882353,0.929411764705882);
#291=MANIFOLD_SOLID_BREP('16 x 5 Ball Nut',#282);
#292=SHAPE_DEFINITION_REPRESENTATION(#512,#293);
#293=SHAPE_REPRESENTATION('16 x 5 Ball Nut',(#294),#507);
#294=AXIS2_PLACEMENT_3D('',#413,#331,#332);
#295=AXIS2_PLACEMENT_3D('',#414,#333,#334);
#296=AXIS2_PLACEMENT_3D('',#415,#335,#336);
#297=AXIS2_PLACEMENT_3D('',#420,#338,#339);
#298=AXIS2_PLACEMENT_3D('',#435,#341,#342);
#299=AXIS2_PLACEMENT_3D('',#436,#343,#344);
#300=AXIS2_PLACEMENT_3D('',#438,#345,#346);
#301=AXIS2_PLACEMENT_3D('',#452,#347,#348);
#302=AXIS2_PLACEMENT_3D('',#453,#349,#350);
#303=AXIS2_PLACEMENT_3D('',#455,#351,#352);
#304=AXIS2_PLACEMENT_3D('',#457,#353,#354);
#305=AXIS2_PLACEMENT_3D('',#459,#355,#356);
#306=AXIS2_PLACEMENT_3D('',#461,#357,#358);
#307=AXIS2_PLACEMENT_3D('',#463,#359,#360);
#308=AXIS2_PLACEMENT_3D('',#467,#362,#363);
#309=AXIS2_PLACEMENT_3D('',#470,#365,#366);
#310=AXIS2_PLACEMENT_3D('',#473,#368,#369);
#311=AXIS2_PLACEMENT_3D('',#476,#371,#372);
#312=AXIS2_PLACEMENT_3D('',#477,#373,#374);
#313=AXIS2_PLACEMENT_3D('',#479,#375,#376);
#314=AXIS2_PLACEMENT_3D('',#481,#377,#378);
#315=AXIS2_PLACEMENT_3D('',#483,#379,#380);
#316=AXIS2_PLACEMENT_3D('',#485,#381,#382);
#317=AXIS2_PLACEMENT_3D('',#487,#383,#384);
#318=AXIS2_PLACEMENT_3D('',#489,#385,#386);
#319=AXIS2_PLACEMENT_3D('',#493,#389,#390);
#320=AXIS2_PLACEMENT_3D('',#494,#391,#392);
#321=AXIS2_PLACEMENT_3D('',#496,#393,#394);
#322=AXIS2_PLACEMENT_3D('',#497,#395,#396);
#323=AXIS2_PLACEMENT_3D('',#498,#397,#398);
#324=AXIS2_PLACEMENT_3D('',#499,#399,#400);
#325=AXIS2_PLACEMENT_3D('',#500,#401,#402);
#326=AXIS2_PLACEMENT_3D('',#501,#403,#404);
#327=AXIS2_PLACEMENT_3D('',#502,#405,#406);
#328=AXIS2_PLACEMENT_3D('',#503,#407,#408);
#329=AXIS2_PLACEMENT_3D('',#504,#409,#410);
#330=AXIS2_PLACEMENT_3D('',#505,#411,#412);
#331=DIRECTION('',(0.,0.,1.));
#332=DIRECTION('',(1.,0.,0.));
#333=DIRECTION('',(-1.,0.,0.));
#334=DIRECTION('',(0.,1.,0.));
#335=DIRECTION('',(-1.,0.,0.));
#336=DIRECTION('',(0.,1.,0.));
#337=DIRECTION('',(1.,0.,0.));
#338=DIRECTION('',(-1.,0.,0.));
#339=DIRECTION('',(0.,1.,0.));
#340=DIRECTION('',(1.,0.,0.));
#341=DIRECTION('',(-1.,0.,0.));
#342=DIRECTION('',(0.,1.,0.));
#343=DIRECTION('',(-1.,0.,0.));
#344=DIRECTION('',(0.,1.,0.));
#345=DIRECTION('',(-1.,0.,0.));
#346=DIRECTION('',(0.,1.,0.));
#347=DIRECTION('',(1.,0.,0.));
#348=DIRECTION('',(0.,-1.,0.));
#349=DIRECTION('',(-1.,0.,0.));
#350=DIRECTION('',(0.,1.,0.));
#351=DIRECTION('',(-1.,0.,0.));
#352=DIRECTION('',(0.,1.,0.));
#353=DIRECTION('',(-1.,0.,0.));
#354=DIRECTION('',(0.,1.,0.));
#355=DIRECTION('',(-1.,0.,0.));
#356=DIRECTION('',(0.,1.,0.));
#357=DIRECTION('',(-1.,0.,0.));
#358=DIRECTION('',(0.,1.,0.));
#359=DIRECTION('',(-1.,0.,0.));
#360=DIRECTION('',(0.,1.,0.));
#361=DIRECTION('',(0.,-1.,-7.15512207650466E-17));
#362=DIRECTION('',(-1.,0.,0.));
#363=DIRECTION('',(0.,1.,0.));
#364=DIRECTION('',(0.,-1.,-7.15512207650466E-17));
#365=DIRECTION('',(-1.,0.,0.));
#366=DIRECTION('',(0.,1.,0.));
#367=DIRECTION('',(1.,0.,0.));
#368=DIRECTION('',(-1.,0.,0.));
#369=DIRECTION('',(0.,1.,0.));
#370=DIRECTION('',(1.,0.,0.));
#371=DIRECTION('',(-1.,0.,0.));
#372=DIRECTION('',(0.,1.,0.));
#373=DIRECTION('',(-1.,0.,0.));
#374=DIRECTION('',(0.,1.,0.));
#375=DIRECTION('',(-1.,0.,0.));
#376=DIRECTION('',(0.,1.,0.));
#377=DIRECTION('',(-1.,0.,0.));
#378=DIRECTION('',(0.,1.,0.));
#379=DIRECTION('',(-1.,0.,0.));
#380=DIRECTION('',(0.,1.,0.));
#381=DIRECTION('',(-1.,0.,0.));
#382=DIRECTION('',(0.,1.,0.));
#383=DIRECTION('',(-1.,0.,0.));
#384=DIRECTION('',(0.,1.,0.));
#385=DIRECTION('',(-1.,0.,0.));
#386=DIRECTION('',(0.,1.,0.));
#387=DIRECTION('',(0.,1.,7.15512207650466E-17));
#388=DIRECTION('',(0.,1.,7.15512207650466E-17));
#389=DIRECTION('',(-1.,0.,0.));
#390=DIRECTION('',(0.,1.,0.));
#391=DIRECTION('',(-1.,0.,0.));
#392=DIRECTION('',(0.,1.,0.));
#393=DIRECTION('',(-1.,0.,0.));
#394=DIRECTION('',(0.,1.,0.));
#395=DIRECTION('',(0.,-7.15512207650466E-17,1.));
#396=DIRECTION('',(0.,-1.,-7.15512207650466E-17));
#397=DIRECTION('',(0.,-7.15512207650466E-17,1.));
#398=DIRECTION('',(0.,-1.,-7.15512207650466E-17));
#399=DIRECTION('',(-1.,0.,0.));
#400=DIRECTION('',(0.,1.,0.));
#401=DIRECTION('',(-1.,0.,0.));
#402=DIRECTION('',(0.,1.,0.));
#403=DIRECTION('',(-1.,0.,0.));
#404=DIRECTION('',(0.,1.,0.));
#405=DIRECTION('',(-1.,0.,0.));
#406=DIRECTION('',(0.,1.,0.));
#407=DIRECTION('',(-1.,0.,0.));
#408=DIRECTION('',(0.,1.,0.));
#409=DIRECTION('',(-1.,0.,0.));
#410=DIRECTION('',(0.,1.,0.));
#411=DIRECTION('',(0.,-0.923879532511287,-0.38268343236509));
#412=DIRECTION('',(0.,0.38268343236509,-0.923879532511287));
#413=CARTESIAN_POINT('',(0.,0.,0.));
#414=CARTESIAN_POINT('',(0.000810660421848297,0.,0.));
#415=CARTESIAN_POINT('',(0.0308106604218483,0.,0.));
#416=CARTESIAN_POINT('',(0.0308106604218483,0.0132664991614216,0.02));
#417=CARTESIAN_POINT('',(0.0308106604218483,0.0132664991614216,-0.02));
#418=CARTESIAN_POINT('',(0.0158106604218483,0.0132664991614216,0.02));
#419=CARTESIAN_POINT('',(0.0408106604218483,0.0132664991614216,0.02));
#420=CARTESIAN_POINT('',(0.0408106604218483,0.,0.));
#421=CARTESIAN_POINT('',(0.0408106604218483,0.0132664991614216,-0.02));
#422=CARTESIAN_POINT('',(0.0158106604218483,0.0132664991614216,-0.02));
#423=CARTESIAN_POINT('',(0.0338532162590745,0.0213622804464907,0.0109713595127359));
#424=CARTESIAN_POINT('',(0.0330395339715908,0.0222034178281516,0.0091964266114567));
#425=CARTESIAN_POINT('',(0.0338526103856521,0.0228627009225285,0.00734934830201025));
#426=CARTESIAN_POINT('',(0.0358084846766363,0.0230823663079879,0.00656263652545152));
#427=CARTESIAN_POINT('',(0.0377691929663743,0.0228629878326614,0.00734854216690856));
#428=CARTESIAN_POINT('',(0.0385807768153264,0.0222033485850889,0.00919638556559633));
#429=CARTESIAN_POINT('',(0.0377716612840725,0.0213643866228417,0.0109672208021333));
#430=CARTESIAN_POINT('',(0.0358133155042176,0.0209619969507523,0.0116815585346832));
#431=CARTESIAN_POINT('',(0.0338532162590745,0.0213622804464907,0.0109713595127359));
#432=CARTESIAN_POINT('',(0.0330395339715908,0.0222034178281516,0.0091964266114567));
#433=CARTESIAN_POINT('',(0.0338526103856521,0.0228627009225285,0.00734934830201025));
#434=CARTESIAN_POINT('',(0.0333106604218483,0.0221731087802709,0.00918440237676215));
#435=CARTESIAN_POINT('',(0.000810660421848297,0.,0.));
#436=CARTESIAN_POINT('',(-0.0091893395781517,0.,0.));
#437=CARTESIAN_POINT('',(-0.0091893395781517,0.0081,0.));
#438=CARTESIAN_POINT('',(0.0408106604218483,0.,0.));
#439=CARTESIAN_POINT('',(0.0408106604218483,0.0081,0.));
#440=CARTESIAN_POINT('',(0.0377703620051742,0.00805486683933618,0.001216776685902));
#441=CARTESIAN_POINT('',(0.0358105336497409,0.00808479665150996,0.000349573397406194));
#442=CARTESIAN_POINT('',(0.0338514659269519,0.00805462172398498,0.00121714505424536));
#443=CARTESIAN_POINT('',(0.0330399562344903,0.00757370479721695,0.00313373162456501));
#444=CARTESIAN_POINT('',(0.0338526748906292,0.00655486726263581,0.00483725622664647));
#445=CARTESIAN_POINT('',(0.0358090665793585,0.00596465896418599,0.00546853556952554));
#446=CARTESIAN_POINT('',(0.0377685958853919,0.00655467001824589,0.00483720169980135));
#447=CARTESIAN_POINT('',(0.0385812510666604,0.00757243166785408,0.00313688263661635));
#448=CARTESIAN_POINT('',(0.0377703620051742,0.00805486683933618,0.001216776685902));
#449=CARTESIAN_POINT('',(0.0358105336497409,0.00808479665150996,0.000349573397406194));
#450=CARTESIAN_POINT('',(0.0338514659269519,0.00805462172398498,0.00121714505424536));
#451=CARTESIAN_POINT('',(0.0358106604218483,0.0080747791948935,0.000638702554962004));
#452=CARTESIAN_POINT('',(0.0408106604218483,0.01605,0.));
#453=CARTESIAN_POINT('',(0.0408106604218483,-0.0134350288425444,0.0134350288425444));
#454=CARTESIAN_POINT('',(0.0408106604218483,-0.0106850288425444,0.0134350288425444));
#455=CARTESIAN_POINT('',(0.0408106604218483,-0.019,0.));
#456=CARTESIAN_POINT('',(0.0408106604218483,-0.01625,0.));
#457=CARTESIAN_POINT('',(0.0408106604218483,-0.0134350288425444,-0.0134350288425444));
#458=CARTESIAN_POINT('',(0.0408106604218483,-0.0106850288425444,-0.0134350288425444));
#459=CARTESIAN_POINT('',(0.0408106604218483,0.0134350288425444,-0.0134350288425444));
#460=CARTESIAN_POINT('',(0.0408106604218483,0.0161850288425444,-0.0134350288425444));
#461=CARTESIAN_POINT('',(0.0408106604218483,0.019,0.));
#462=CARTESIAN_POINT('',(0.0408106604218483,0.02175,0.));
#463=CARTESIAN_POINT('',(0.0408106604218483,0.0134350288425444,0.0134350288425444));
#464=CARTESIAN_POINT('',(0.0408106604218483,0.0161850288425444,0.0134350288425444));
#465=CARTESIAN_POINT('',(0.0408106604218483,-0.00128844939172269,0.02));
#466=CARTESIAN_POINT('',(0.0408106604218483,-0.0132664991614216,0.02));
#467=CARTESIAN_POINT('',(0.0408106604218483,0.,0.));
#468=CARTESIAN_POINT('',(0.0408106604218483,-0.0132664991614216,-0.02));
#469=CARTESIAN_POINT('',(0.0408106604218483,-0.00128844939172266,-0.02));
#470=CARTESIAN_POINT('',(0.000810660421848297,0.,0.));
#471=CARTESIAN_POINT('',(0.0158106604218483,-0.0132664991614216,0.02));
#472=CARTESIAN_POINT('',(0.0308106604218483,-0.0132664991614216,0.02));
#473=CARTESIAN_POINT('',(0.0308106604218483,0.,0.));
#474=CARTESIAN_POINT('',(0.0308106604218483,-0.0132664991614216,-0.02));
#475=CARTESIAN_POINT('',(0.0158106604218483,-0.0132664991614216,-0.02));
#476=CARTESIAN_POINT('',(0.0308106604218483,0.019,0.));
#477=CARTESIAN_POINT('',(0.0308106604218483,-0.0134350288425444,0.0134350288425444));
#478=CARTESIAN_POINT('',(0.0308106604218483,-0.0106850288425444,0.0134350288425444));
#479=CARTESIAN_POINT('',(0.0308106604218483,-0.019,0.));
#480=CARTESIAN_POINT('',(0.0308106604218483,-0.01625,0.));
#481=CARTESIAN_POINT('',(0.0308106604218483,-0.0134350288425444,-0.0134350288425444));
#482=CARTESIAN_POINT('',(0.0308106604218483,-0.0106850288425444,-0.0134350288425444));
#483=CARTESIAN_POINT('',(0.0308106604218483,0.0134350288425444,-0.0134350288425444));
#484=CARTESIAN_POINT('',(0.0308106604218483,0.0161850288425444,-0.0134350288425444));
#485=CARTESIAN_POINT('',(0.0308106604218483,0.019,0.));
#486=CARTESIAN_POINT('',(0.0308106604218483,0.02175,0.));
#487=CARTESIAN_POINT('',(0.0308106604218483,0.0134350288425444,0.0134350288425444));
#488=CARTESIAN_POINT('',(0.0308106604218483,0.0161850288425444,0.0134350288425444));
#489=CARTESIAN_POINT('',(0.0308106604218483,0.,0.));
#490=CARTESIAN_POINT('',(0.0308106604218483,0.014,0.));
#491=CARTESIAN_POINT('',(0.0308106604218483,0.019,0.02));
#492=CARTESIAN_POINT('',(0.0308106604218483,0.019,-0.02));
#493=CARTESIAN_POINT('',(-0.0091893395781517,0.01105,0.));
#494=CARTESIAN_POINT('',(-0.0091893395781517,0.,0.));
#495=CARTESIAN_POINT('',(-0.0091893395781517,0.014,0.));
#496=CARTESIAN_POINT('',(0.000810660421848297,0.,0.));
#497=CARTESIAN_POINT('',(0.0158106604218483,-0.00128844939172266,-0.02));
#498=CARTESIAN_POINT('',(0.0158106604218483,-0.00128844939172269,0.02));
#499=CARTESIAN_POINT('',(0.0408106604218483,0.0134350288425444,0.0134350288425444));
#500=CARTESIAN_POINT('',(0.0408106604218483,0.019,0.));
#501=CARTESIAN_POINT('',(0.0408106604218483,0.0134350288425444,-0.0134350288425444));
#502=CARTESIAN_POINT('',(0.0408106604218483,-0.0134350288425444,-0.0134350288425444));
#503=CARTESIAN_POINT('',(0.0408106604218483,-0.019,0.));
#504=CARTESIAN_POINT('',(0.0408106604218483,-0.0134350288425444,0.0134350288425444));
#505=CARTESIAN_POINT('',(0.0358106604218483,0.0221731087802709,0.00918440237676216));
#506=MECHANICAL_DESIGN_GEOMETRIC_PRESENTATION_REPRESENTATION('',(#283),
#507);
#507=(
GEOMETRIC_REPRESENTATION_CONTEXT(3)
GLOBAL_UNCERTAINTY_ASSIGNED_CONTEXT((#508))
GLOBAL_UNIT_ASSIGNED_CONTEXT((#511,#510,#509))
REPRESENTATION_CONTEXT('16 x 5 Ball Nut','TOP_LEVEL_ASSEMBLY_PART')
);
#508=UNCERTAINTY_MEASURE_WITH_UNIT(LENGTH_MEASURE(5.E-6),#511,
'DISTANCE_ACCURACY_VALUE','Maximum Tolerance applied to model');
#509=(
NAMED_UNIT(*)
SI_UNIT($,.STERADIAN.)
SOLID_ANGLE_UNIT()
);
#510=(
NAMED_UNIT(*)
PLANE_ANGLE_UNIT()
SI_UNIT($,.RADIAN.)
);
#511=(
LENGTH_UNIT()
NAMED_UNIT(*)
SI_UNIT($,.METRE.)
);
#512=PRODUCT_DEFINITION_SHAPE('','',#513);
#513=PRODUCT_DEFINITION('','',#515,#514);
#514=PRODUCT_DEFINITION_CONTEXT('',#521,'design');
#515=PRODUCT_DEFINITION_FORMATION_WITH_SPECIFIED_SOURCE('','',#517,
 .NOT_KNOWN.);
#516=PRODUCT_RELATED_PRODUCT_CATEGORY('','',(#517));
#517=PRODUCT('16 x 5 Ball Nut','16 x 5 Ball Nut','16 x 5 Ball Nut',(#519));
#518=PRODUCT_CATEGORY('','');
#519=PRODUCT_CONTEXT('',#521,'mechanical');
#520=APPLICATION_PROTOCOL_DEFINITION('international standard',
'ap242_managed_model_based_3d_engineering',2011,#521);
#521=APPLICATION_CONTEXT('managed model based 3d engineering');
ENDSEC;
END-ISO-10303-21;
